PrimaNota.ru - самый крупный в мире бесплатный архив песенных текстов, аккордов, табулатур и нот


Artifex Pereo - No Stranger To Worry - таба, видео

Регистрация Запомнить меня
Войти через:  Facebook Google Twitter Vk Yandex Mail.ru

Artifex Pereo - No Stranger To Worry - таба, видео

Печатать
Просмотров: 72
Уроки эстрадного вокала в Санкт-Петербурге
-------------------------------------------------------------------------------
                  NO STRANGER TO WORRY - Artifex Pereo
-------------------------------------------------------------------------------
Tabbed by: chapin2ga
E-mail: chapin2ga@gmail.com

Tuning: Drop C (Or possibly D standard, I couldn't really tell)

D|16-12-9-7-11-------16-12-9-7-11-------16-12-9-7-11--------16-12-9-7-11-------|
A|-------------7-7/9--------------7-7/9--------------7-7/9---------------7-7/9-|
F|-----------------------------------------------------------------------------|
C|-----------------------------------------------------------------------------|
G|-----------------------------------------------------------------------------|
C|-----------------------------------------------------------------------------|

(Note that there is a slight rest after the third 7 slide to 9 above...)

D|16-12-9-7-11-------16-12-9-7-11-------|
A|-------------7-7/9--------------7-9\7-|
F|--------------------------------------|
C|--------------------------------------|
G|--------------------------------------|
C|--------------------------------------|
(... and also a rest on the 9 slide to 7 above)
Добавлено: 24.12.2015
Другие материалы по этой песне:
  • Аккорды и текст

Страница создана 24.12.2015
http://primanota.ru/artifex-pereo/no-stranger-to-worry-chords.htm
Привет, Гость.
Предлагаем пройти революционный курс по гитаре.
Подарок от PrimaNota.Ru, забирай!