PrimaNota.ru - самый крупный в мире бесплатный архив песенных текстов, аккордов, табулатур и нот


Arthur Russell - A Little Lost - аккорды и текст, видео

Регистрация Запомнить меня
Войти через:  Facebook Google Twitter Vk Yandex Mail.ru

Arthur Russell - A Little Lost - аккорды и текст, видео

Печатать
Просмотров: 127
Авторы музыки: Arthur Russell
Авторы текста: Arthur Russell
A Little Lost
Arthur Russell
A Little Lost
by Arthur Russell (1982), Another Thought (1994, Point)

INTRO:
---------------|---------------|---------------|
------------1--|---------------|---------------|
0-0-0-0---2----|0---0-0---2-0--|---------------|
---------------|--------------2|----------0---2|
---------------|---------------|3---3---3------|
---------------|---------------|---------------|
1   2   3   4  |1   2   3   4  |1   2   3   4  |

---------------|---------------|
------------1--|------------1--|
0-0-0-0---2----|0-0-0-0---2----|
---------------|---------------|
---------------|---------------|
---------------|---------------|
1   2   3   4  |1   2   3   4  |

VERSE:
C   G        F
I'm a little lost...
...
C               G               F
Now I hope that I have paid the cost...
...

CHORUS:
      C     G
Cause I'm...busy
               F
Thinking about kissing...
        G            F
Without entertaining another thought

VERSE

CHORUS

VERSE

CHORUS

INSTRUMENTAL VERSE

INSTRUMENTAL CHORUS

CHORUS C

     
Добавлено: 30.07.2013
Вам также может быть интересно:
Другие материалы по этой песне:
  • Аккорды и текст

Страница создана 30.07.2013
http://primanota.ru/arthur-russell/a-little-lost-chords.htm
Привет, Гость.
Предлагаем пройти революционный курс по гитаре.
Подарок от PrimaNota.Ru, забирай!