PrimaNota.ru - самый крупный в мире бесплатный архив песенных текстов, аккордов, табулатур и нот


Artcell - Lin - таба, видео

Регистрация Запомнить меня
Войти через:  Facebook Google Twitter Vk Yandex Mail.ru

Artcell - Lin - таба, видео

Печатать
Просмотров: 158
Hey guys this is aftab frm Mastermind.Plz comment me
Intro

E------------------0-----------------------------0-------------|
B--------0----------------0--------------0-------------0-------|
G----6------6--------6------6--------6-----6-----6------6------|
D-7--------------------------------7---------------------------|
A--------------------------------------------------------------|
E--------------------------------------------------------------|


E-------------------0----------------------------------0---------|
B---------0---------------0---------------------0------------0---|
G-----8------8--------8-----8-------------8------8------8-----8--|
D--9-----------------------------------9-------------------------|
A----------------------------------------------------------------|
E----------------------------------------------------------------| x2[mane oporer 2 to 
ekbar repeat hobe]

erpor gaanta shuru hole.............

E-----------------0---------------------------------0-------------------|
B--------0--------------0-------------------0----------------0----------|
G----6-----6--------6-----6-----------6-------6-------6-------6---------|
D-7--------------------------------7------------------------------------|
A-7---------------------------------------------------------------------|
E-----------------------------------------------------------------------|

E------------------0-------------------------------------0------------|
B---------0---------------0--------------------0-----------------0----|
G-----8-----8--------8-------8-----------8-------8--------8--------8--|
D-9-----------------------------------9-------------------------------|
A-9-------------------------------------------------------------------|
E---------------------------------------------------------------------| x2..........etao 
repeat hobe

E--------------0---------------0----------------------0------------------0--------------|
B-------8---------8------8-------8---------------7------7---------7--------7------------|
G--------------------9---------------x2-----------------------7-----------------x2------|
D--9-----------------------------------------9------------------------------------------|
A---------------------------------------------------------------------------------------|
B---------------------------------------------------------------------------------------|

keu erokom variation ante paren...............jemon
E--------------------------------0------------------------------------|
B---------8----------------8--------8---------------------------------|
G------------9---------9----------------------------------------------|
D---9-----------9-----------------------------------------------------|
A---------------------------------------------------------------------|
E---------------------------------------------------------------------|


Chords............................................ ..

-A----B-----A-----B------A----B------------A----------B-------------------------
lin jorotay nil akashe jhor badha pore bhanga manushe
--Em----Bm--------Em------------Bm-------------Em---------------------------------------
bhije somoy ekadhare bhese geche roder rekha
--Bm------------Em-----------Bm-------------------------------------
bhese geche rode bhese geche


Shapes...................
A- 577600
B- 799800
Em- 779980
Bm- 799770
Добавлено: 24.05.2012
Другие материалы по этой песне:

Страница создана 14.03.2012
http://primanota.ru/artcell/lin-chords.htm
Привет, Гость.
Предлагаем пройти революционный курс по гитаре.
Подарок от PrimaNota.Ru, забирай!