PrimaNota.ru - самый крупный в мире бесплатный архив песенных текстов, аккордов, табулатур и нот


Art Vs Science - Enter Sandman - бас-таба, видео

Регистрация Запомнить меня
Войти через:  Facebook Google Twitter Vk Yandex Mail.ru

Art Vs Science - Enter Sandman - бас-таба, видео

Печатать
Просмотров: 59
Уроки эстрадного вокала в Санкт-Петербурге
-------------------------------------------------------------------------------
                        ENTER SANDMAN - Art vs Science
-------------------------------------------------------------------------------
Tabbed by: jamesxboxlive12
E-mail: jamesxboxlive1234@live.com.au

Tuning: Standard (EADGBe)

This is Art vs Science's cover of Enter Sandman for 'Like A Version' on Triple J.
The bass was originally played on keyboard but this is transposed to bass guitar


 | Intro 
G|------------------------------------------------------------------------------------|
D|------------------------------------------------------------------------------------|
A|------------------------------------------------------------------------------------|
E|--2---2---2---2---2---2---2---2---2---2---2---2---2---2---2---2---2---2---0---------|

 | Riff 1 
G|-----------------------------------------------------------------------|
D|-----------------------------------------------------------------------|
A|------7-7-------5-----7-7-------5-----7-7-----------------------5---6--| 
E|--0------6\5-5----0------6\5-5----0------6\5-5---3---0-2--0-2-3--------|

 | Riff 2 
G|----------------------------------|
D|------4-4-------------4-4---------|
A|---------3\2-2-----------3\2-2----|  
E|--2-------------0-2-------------0-|

 | Riff 3
G|----------------------------------|
D|------4-4-------------------------|
A|---------3\2-2--------------------|  
E|--2--------------5---2-4--2-4-5-0-|

 | Riff 4 
G|-----------------------------------------------------------------------|
D|--2-4---4---4---4---4---4---4---4---4---4---4---4---4---4---4---4------|
A|-----------------------------------------------------------------------|
E|-----------------------------------------------------------------------|

 | Riff 5
G|-------------------------------------------------------------------------------------------------------|      
D|------6-6-------------6-6-------------6-6---------------------------------6-6--------------------------|
A|---------5\4-4-----------5\4-4-----------5\4-4-------------------------------5\4-4---------------------|
E|--4-------------2-4-------------2-4--------------6---2-4--2-4-6-2-----4--------------6---2-4--2-4-6-2--|


Order of parts:

Intro

Riff 1 x4

Riff 2 x3

Riff 3 x2

Riff 1 x2  (Keyboard Solo)

Riff 2 x2

Riff 4

Riff 5

Riff 2

Riff 3 x2

Riff 1 x8 (Guitar Solo and Outro)


===============================================================================
Добавлено: 19.06.2016
Другие материалы по этой песне:
  • Аккорды и текст

Страница создана 19.06.2016
http://primanota.ru/art-vs-science/enter-sandman-chords.htm
Привет, Гость.
Предлагаем пройти революционный курс по гитаре.
Подарок от PrimaNota.Ru, забирай!