PrimaNota.ru - самый крупный в мире бесплатный архив песенных текстов, аккордов, табулатур и нот


Art of Scarlet - Solace - таба, бас-таба, видео

Регистрация Запомнить меня
Войти через:  Facebook Google Twitter Vk Yandex Mail.ru

Art of Scarlet - Solace - таба, бас-таба, видео

Печатать
Просмотров: 83
-------------------------------------------------------------------------------
                             Solace - Art of Scarlet
-------------------------------------------------------------------------------
Tabbed by: Danny Nocito
E-mail: apexdebaby@gmail.com

https://www.facebook.com/artofscarlet/

Tuning: C#F#BEG#C#

Intro
C#|----------------------|----------------------|
G#|----------------------|----------------------|
E |7/9-9-9-7/9-9-9-910-9-|----------------------|
B |x-x-x-x-x-x-x-x-x-x-x-|----------------------|  X4
F#|5/7-7-7-5/7-7-7-7/8-7-|----------------------|
C#|0-0-0-0-0-0-0-0-0-0-0-|----------------------|

Verse 1
C#|--------------------------------|--------------------------------|
G#|--------------------------------|--------------------------------|
E |-------0-------------0h2p0---0--|-------0-------------0h2---0----|
B |------4-------4---4--------4----|------4-------4---4-------------|
F#|-----2--------------------------|-----2--------------------------|\
C#|0---0-----3-----3---------------|0---0-----3-----3---------------| \
                                                                       X2
C#|--------------------------------|--------------------------------| /
G#|--------------------------------|--------------------------------|/
E |-------0-------------0h2p0---0--|4-----4---4---x---6-----6-6-6-6-|
B |------4-------4---4--------4----|5-----5---5---x---7-----7-7-7-7-|
F#|-----2--------------------------|5-----5---5---x---7-----7-7-7-7-|
C#|0---0-----3-----3---------------|3-----3---3---x---5-----5-5-5-5-|

C#|----------------------|----------------------|
G#|----------------------|----------------------|
E |7/9-9-9-7/9-9-9-910-9-|7/9-9-9-7/9-9-9-910-9-|
B |x-x-x-x-x-x-x-x-x-x-x-|x-x-x-x-x-x-x-x-x-x-x-|  
F#|5/7-7-7-5/7-7-7-7/8-7-|5/7-7-7-5/7-7-7-7/8-7-|
C#|0-0-0-0-0-0-0-0-0-0-0-|0-0-0-0-0-0-0-0-0-0-0-|

C#|--------------------------------|--------------------------------|
G#|--------------------------------|--------------------------------|
E |-------0-------------0h2p0---0--|-------0-------------0h2---0----|
B |------4-------4---4--------4----|------4-------4---4-------------|
F#|-----2--------------------------|-----2--------------------------|\
C#|0---0-----3-----3---------------|0---0-----3-----3---------------| \
                                                                       X2
C#|--------------------------------|--------------------------------| /
G#|--------------------------------|--------------------------------|/
E |-------0-------------0h2p0---0--|4-----4---4---x---6-----6-6-6-6-|
B |------4-------4---4--------4----|5-----5---5---x---7-----7-7-7-7-|
F#|-----2--------------------------|5-----5---5---x---7-----7-7-7-7-|
C#|0---0-----3-----3---------------|3-----3---3---x---5-----5-5-5-5-|

Chorus
C#|----------------------|----------------------|--------------------------------|
G#|----------------------|----------------------|--------------------------------|
E |7/9-9-9-7/9-9-9-910-9-|7/9-9-9-7/9-9-9-910-9-|4-4-4-4-4-4-4-4-6-6-6-6-6-6-6-6-|
B |x-x-x-x-x-x-x-x-x-x-x-|x-x-x-x-x-x-x-x-x-x-x-|5-5-5-5-5-5-5-5-7-7-7-7-7-7-7-7-| X4
F#|5/7-7-7-5/7-7-7-7/8-7-|5/7-7-7-5/7-7-7-7/8-7-|5-5-5-5-5-5-5-5-7-7-7-7-7-7-7-7-|
C#|0-0-0-0-0-0-0-0-0-0-0-|0-0-0-0-0-0-0-0-0-0-0-|3-3-3-3-3-3-3-3-5-5-5-5-5-5-5-5-|

Verse 2
C#|--------------------------------|--------------------------------|
G#|--------------------------------|--------------------------------|
E |-------0-------------0h2p0---0--|-------0-------------0h2---0----|
B |------4-------4---4--------4----|------4-------4---4-------------|
F#|-----2--------------------------|-----2--------------------------|\
C#|0---0-----3-----3---------------|0---0-----3-----3---------------| \
                                                                       X3
C#|--------------------------------|--------------------------------| /
G#|--------------------------------|--------------------------------|/
E |-------0-------------0h2p0---0--|4-----4---4---x---6-----6-6-6-6-|
B |------4-------4---4--------4----|5-----5---5---x---7-----7-7-7-7-|
F#|-----2--------------------------|5-----5---5---x---7-----7-7-7-7-|
C#|0---0-----3-----3---------------|3-----3---3---x---5-----5-5-5-5-|

Chorus
C#|----------------------|----------------------|--------------------------------|
G#|----------------------|----------------------|--------------------------------|
E |7/9-9-9-7/9-9-9-910-9-|7/9-9-9-7/9-9-9-910-9-|4-4-4-4-4-4-4-4-6-6-6-6-6-6-6-6-|
B |x-x-x-x-x-x-x-x-x-x-x-|x-x-x-x-x-x-x-x-x-x-x-|5-5-5-5-5-5-5-5-7-7-7-7-7-7-7-7-| X4
F#|5/7-7-7-5/7-7-7-7/8-7-|5/7-7-7-5/7-7-7-7/8-7-|5-5-5-5-5-5-5-5-7-7-7-7-7-7-7-7-|
C#|0-0-0-0-0-0-0-0-0-0-0-|0-0-0-0-0-0-0-0-0-0-0-|3-3-3-3-3-3-3-3-5-5-5-5-5-5-5-5-|

Bridge 
C#|--------------------------------|--------------------------------|
G#|--------------------------------|--------------------------------|
E |--------------------------------|--------------------------------|
B |--------------------------------|--------------------------------|
F#|--------------------------------|3-3-3-3-3-3-3-3-3-3-3-3-3-7-7-7-|\
C#|5-5-5-5-5-5-5-5-5-5-5-5-5-3-3-3-|--------------------------------| \
                                                                       X8
C#|--------------------------------|--------------------------------| /
G#|--------------------------------|--------------------------------|/
E |--------------------------------|--------------------------------|
B |--------------------------------|--------------------------------|
F#|--------------------------------|5-5-5-5-5-5-5-5-5-3-3-3-5-3-3-3-|
C#|3-3-3-3-3-3-3-3-3-3-3-3-3-3-3-3-|--------------------------------|

************************************

| /   slide up
| \   slide down
| h   hammer-on
| p   pull-off
| ~   vibrato
| +   harmonic
| x   Mute note
| b   Bend
| pb  Pre-bend
| br  Bend release
| pbr Pre-bend release
| brb Bend release bend

************************************
Добавлено: 30.05.2016
Другие материалы по этой песне:
  • Аккорды и текст

Страница создана 10.05.2016
http://primanota.ru/art-of-scarlet/solace-chords.htm
Привет, Гость.
Предлагаем пройти революционный курс по гитаре.
Подарок от PrimaNota.Ru, забирай!