PrimaNota.ru - самый крупный в мире бесплатный архив песенных текстов, аккордов, табулатур и нот


Art of Scarlet - New World Order - таба, бас-таба, видео

Регистрация Запомнить меня
Войти через:  Facebook Google Twitter Vk Yandex Mail.ru

Art of Scarlet - New World Order - таба, бас-таба, видео

Печатать
Просмотров: 122
Уроки эстрадного вокала в Санкт-Петербурге
-------------------------------------------------------------------------------
                             New World Order - Art of Scarlet
-------------------------------------------------------------------------------
Tabbed by: Danny Nocito
E-mail: apexdebaby@gmail.com

https://www.facebook.com/artofscarlet/

Tuning: BF#BEG#C#

Intro
C#|-------------------------------|
G#|-------------------------------|
E |-------------------------------|
B |-------------------------------| X4
F#|-------------------------------|
B |9h10-x-9-x-9h10-x-9-x-9h10-x-7-|

C#|-------------------------------|
G#|-------------------------------|
E |-------------------------------|
B |-------------------------------| X4
F#|-------------------------------|
B |4h5--x-4-x-4h5-x-4-x-4h5-x-2---|

Intro
C#|--------------------------|
G#|--------------------------|
E |--------------------------|
B |2h3-x-2-x-2h3-x-2-x-2h3-0-| X4
F#|2h3-x-2-x-2h3-x-2-x-2h3-0-|
B |2h3-x-2-x-2h3-x-2-x-2h3-0-|

Verse 1
C#|-----------------------------------|-----------------------------------|
G#|-----------------------------------|-----------------------------------|
E |-----------------------------------|-----------------------------------|
B |11--11111111-11--11111111-11--1111-||11--11111111-11--11111111-11--1111|
F#|-9---9-9-9-9--9---9-9-9-9--9---9-9-|-9---9-9-9-9--9---9-9-9-9--9---9-9-|
B |10p9-9-9-9-9-10p9-9-9-9-9-10p9-9-9-|10p9-9-9-9-9-10p9-9-9-9-9-10p9-9-9-|
 
C#|-----------------------------------|--------------------------|
G#|-----------------------------------|--------------------------|
E |-----------------------------------|--------------------------|
B |11--11111111-11--11111111-11--1111-|-7-7---7---7-7----7-7-7-7-| X2
F#|-9---9-9-9-9--9---9-9-9-9--9---9-9-|-7-7---7---7-7----7-7-7-7-|
B |10p9-9-9-9-9-10p9-9-9-9-9-10p9-9-9-|-7-7---7---7-7----7-7-7-7-|

Pre-Chorus
C#|--------------------|--------------------|--------------------|--------------------|
G#|3-------------------|3-------------------|2-------------------|--------------------|
E |0-------------------|0-------------------|0-------------------|--------------------|
B |4-------------------|4-------------------|4-------------------|--------4-4-4-4-4-4-|
F#|x-------------------|x-------------------|4-------------------|--------4-4-4-4-4-4-|
B |5-------------------|2-------------------|4-------------------|--------4-4-4-4-4-4-|

Chorus
C#|--------------------|--------------------|--------------------|--------------------|
G#|--------------------|--------------------|--------------------|--------------------|
E |--------------------|----------1111111111|--------------------|7b8r7---------------|
B |2-2-2-2-2-2-2-2-2-2-|2-2-2-2-2-1212121212|0-0-0-0-0-0-0-0-0-0-|x-x-x-0-0-0-0-0-0-0-|
F#|2-2-2-2-2-2-2-2-2-2-|2-2-2-2-2-1010101010|0-0-0-0-0-0-0-0-0-0-|5b6r5-0-0-0-0-0-0-0-|
B |2-2-2-2-2-2-2-2-2-2-|2-2-2-2-2-----------|0-0-0-0-0-0-0-0-0-0-|0-0-0-0-0-0-0-0-0-0-|
 

C#|--------------------|--------------------|--------------------|------------------------|
G#|--------------------|--------------------|--------------------|------------------------|
E |--------------------|----------1111111111|--------------------|------------------------|
B |2-2-2-2-2-2-2-2-2-2-|2-2-2-2-2-1212121212|0-0-0-0-0-0-0-0-0-0-|2-3--3--2-0-2-3--3--2-0-|
F#|2-2-2-2-2-2-2-2-2-2-|2-2-2-2-2-1010101010|0-0-0-0-0-0-0-0-0-0-|2-3--3--2-0-2-3--3--2-0-|
B |2-2-2-2-2-2-2-2-2-2-|2-2-2-2-2-----------|0-0-0-0-0-0-0-0-0-0-|2-3--3--2-0-2-3--3--2-0-|

Verse 2
C#|-----------------------------------|-----------------------------------|
G#|-----------------------------------|-----------------------------------|
E |-----------------------------------|-----------------------------------|
B |11--11111111-11--11111111-11--1111-||11--11111111-11--11111111-11--1111|
F#|-9---9-9-9-9--9---9-9-9-9--9---9-9-|-9---9-9-9-9--9---9-9-9-9--9---9-9-|
B |10p9-9-9-9-9-10p9-9-9-9-9-10p9-9-9-|10p9-9-9-9-9-10p9-9-9-9-9-10p9-9-9-|
 
C#|-----------------------------------|--------------------------|
G#|-----------------------------------|--------------------------|
E |-----------------------------------|--------------------------|
B |11--11111111-11--11111111-11--1111-|-7-7---7---7-7----7-7-7-7-| X2
F#|-9---9-9-9-9--9---9-9-9-9--9---9-9-|-7-7---7---7-7----7-7-7-7-|
B |10p9-9-9-9-9-10p9-9-9-9-9-10p9-9-9-|-7-7---7---7-7----7-7-7-7-|

Pre-Chorus
C#|--------------------|--------------------|--------------------|--------------------|
G#|3-------------------|3-------------------|2-------------------|--------------------|
E |0-------------------|0-------------------|0-------------------|--------------------|
B |4-------------------|4-------------------|4-------------------|--------4-4-4-4-4-4-|
F#|x-------------------|x-------------------|4-------------------|--------4-4-4-4-4-4-|
B |5-------------------|2-------------------|4-------------------|--------4-4-4-4-4-4-|

Chorus
C#|--------------------|--------------------|--------------------|--------------------|
G#|--------------------|--------------------|--------------------|--------------------|
E |--------------------|----------1111111111|--------------------|7b8r7---------------|
B |2-2-2-2-2-2-2-2-2-2-|2-2-2-2-2-1212121212|0-0-0-0-0-0-0-0-0-0-|x-x-x-0-0-0-0-0-0-0-|
F#|2-2-2-2-2-2-2-2-2-2-|2-2-2-2-2-1010101010|0-0-0-0-0-0-0-0-0-0-|5b6r5-0-0-0-0-0-0-0-|
B |2-2-2-2-2-2-2-2-2-2-|2-2-2-2-2-----------|0-0-0-0-0-0-0-0-0-0-|0-0-0-0-0-0-0-0-0-0-|
 

C#|--------------------|--------------------|--------------------|------------------------|
G#|--------------------|--------------------|--------------------|------------------------|
E |--------------------|----------1111111111|--------------------|------------------------|
B |2-2-2-2-2-2-2-2-2-2-|2-2-2-2-2-1212121212|0-0-0-0-0-0-0-0-0-0-|2-3--3--2-0-2-3--3--2-0-| X2
F#|2-2-2-2-2-2-2-2-2-2-|2-2-2-2-2-1010101010|0-0-0-0-0-0-0-0-0-0-|2-3--3--2-0-2-3--3--2-0-|
B |2-2-2-2-2-2-2-2-2-2-|2-2-2-2-2-----------|0-0-0-0-0-0-0-0-0-0-|2-3--3--2-0-2-3--3--2-0-|

Breakdown
C#|-------------------------------|
G#|-------------------------------|
E |-------------------------------|
B |-------------------------------| X8
F#|-------------------------------|
B |9h10-x-9-x-9h10-x-9-x-9h10-x-7-|

C#|--------------------------|
G#|--------------------------|
E |--------------------------|
B |2h3-x-3-x-2h3-x-3-x-2h3-0-| X8
F#|2h3-x-3-x-2h3-x-3-x-2h3-0-|
B |2h3-x-3-x-2h3-x-3-x-2h3-0-|

Chorus
C#|--------------------|--------------------|--------------------|--------------------|
G#|--------------------|--------------------|--------------------|--------------------|
E |--------------------|----------1111111111|--------------------|7b8r7---------------|
B |2-2-2-2-2-2-2-2-2-2-|2-2-2-2-2-1212121212|0-0-0-0-0-0-0-0-0-0-|x-x-x-0-0-0-0-0-0-0-|
F#|2-2-2-2-2-2-2-2-2-2-|2-2-2-2-2-1010101010|0-0-0-0-0-0-0-0-0-0-|5b6r5-0-0-0-0-0-0-0-|
B |2-2-2-2-2-2-2-2-2-2-|2-2-2-2-2-----------|0-0-0-0-0-0-0-0-0-0-|0-0-0-0-0-0-0-0-0-0-|

C#|--------------------|--------------------|--------------------|------------------------|
G#|--------------------|--------------------|--------------------|------------------------|
E |--------------------|----------1111111111|--------------------|------------------------|
B |2-2-2-2-2-2-2-2-2-2-|2-2-2-2-2-1212121212|0-0-0-0-0-0-0-0-0-0-|2-3--3--2-0-2-3--3--2-0-| X2
F#|2-2-2-2-2-2-2-2-2-2-|2-2-2-2-2-1010101010|0-0-0-0-0-0-0-0-0-0-|2-3--3--2-0-2-3--3--2-0-|
B |2-2-2-2-2-2-2-2-2-2-|2-2-2-2-2-----------|0-0-0-0-0-0-0-0-0-0-|2-3--3--2-0-2-3--3--2-0-|

C#|--------------------|
G#|--------------------|
E |--------------------|
B |2-------------------|
F#|2-------------------|
B |2-------------------|

Intro
Verse
Pre-Chorus
Chorus
Verse
Pre-Chorus
Chorus
Breakdown
Chorus

************************************

| /   slide up
| \   slide down
| h   hammer-on
| p   pull-off
| ~   vibrato
| +   harmonic
| x   Mute note
| b   Bend
| pb  Pre-bend
| br  Bend release
| pbr Pre-bend release
| brb Bend release bend

************************************
Добавлено: 12.06.2016
Другие материалы по этой песне:
  • Аккорды и текст

Страница создана 10.05.2016
http://primanota.ru/art-of-scarlet/new-world-order-chords.htm
Привет, Гость.
Предлагаем пройти революционный курс по гитаре.
Подарок от PrimaNota.Ru, забирай!