PrimaNota.ru - самый крупный в мире бесплатный архив песенных текстов, аккордов, табулатур и нот


Art of Scarlet - Alyssum - таба, бас-таба, видео

Регистрация Запомнить меня
Войти через:  Facebook Google Twitter Vk Yandex Mail.ru

Art of Scarlet - Alyssum - таба, бас-таба, видео

Печатать
Просмотров: 79
-------------------------------------------------------------------------------
                             Alyssum - Art of Scarlet
-------------------------------------------------------------------------------
Tabbed by: Danny Nocito
E-mail: apexdebaby@gmail.com

https://www.facebook.com/artofscarlet/

Tuning: BF#BEG#C#

Verse 1
C#|----------------------|----------------------|
G#|----------------------|----------------------|
E |6---------------------|----------------------|
B |4----------9----------|11--------------------| X4
F#|4----------7----------|9---------------------|
B |4----------7----------|0---------------------|

Chorus
C#|--------------------------------|--------------------------------|
G#|-----------------17------15-----|12---------------10-------------|
E |11------14-------x-------x------|13---------------9--------------|
B |x-------x--------14------12-----|11---------------10-------------|
F#|9-------12----------------------|0----------------0--------------|
B |0-------0--------0-------0------|--------------------------------| 

C#|--------------------------------|--------------------------------|
G#|-----------------19------14-----|12---------------10-------------|
E |11------14-------x-------x------|13---------------9--------------|
B |x-------x--------16------11-----|11---------------10-------------|
F#|9-------12----------------------|0----------------0--------------|
B |0-------0--------0-------0------|--------------------------------| 

Verse 2
C#|----------------------|----------------------|
G#|----------------------|----------------------|
E |6---------------------|----------------------|
B |4----------9----------|11--------------------| X4
F#|4----------7----------|9---------------------|
B |4----------7----------|0---------------------|

Chorus
C#|--------------------------------|--------------------------------|
G#|-----------------17------15-----|12---------------10-------------|
E |11------14-------x-------x------|13---------------9--------------|
B |x-------x--------14------12-----|11---------------10-------------|
F#|9-------12----------------------|0----------------0--------------|
B |0-------0--------0-------0------|--------------------------------| 

C#|--------------------------------|--------------------------------|
G#|-----------------19------14-----|12---------------10-------------|
E |11------14-------x-------x------|13---------------9--------------|
B |x-------x--------16------11-----|11---------------10-------------|
F#|9-------12----------------------|0----------------0--------------|
B |0-------0--------0-------0------|--------------------------------| 

Verse 3
C#|----------------------|----------------------|
G#|----------------------|----------------------|
E |6---------------------|----------------------|
B |4----------9----------|11--------------------| X4
F#|4----------7----------|9---------------------|
B |4----------7----------|0---------------------|

Bridge
C#|--------------------------------|--------------------------------|
G#|--------------------------------|--------------------------------|
E |--10--10--10--10--10/12-12-12---|--10--10--10--10--10/12-12-12---|
B |--x---x---x---x---x--x--x--x----|--x---x---x---x---x--x--x--x----|
F#|--8---8---8---8---8//10-10-10---|--8---8---8---8---8//10-10-10---|\
B |0---0---0---0---0---------------|0---0---0---0---0---------------| \
                                                                       X2
C#|--------------------------------|--------------------------------| /
G#|--------------------------------|--------------------------------|/
E |10--------------9---------------|5---------------4---------------|
B |8---------------8---------------|3---------------0---------------|
F#|8---------------8---------------|3---------------x---------------|
B |8---------------8---------------|3---------------5---------------| 

Breakdown
C#|--------------------------------|--------------------------------|
G#|--------------------------------|--------------------------------|
E |11~~------------7~~-------------|10~~----------------------------|
B |x---------------x---------------|x---------------6-----6-----5---|
F#|9~~~------------5~~-------------|8~~~------------6-----6-----5---|
B |----0---0-0---0-----0---0-0---0-|----0---0-0---0-6-----6-----5---| 

C#|--------------------------------|--------------------------------|
G#|--------------------------------|--------------------------------|
E |11~~------------7~~-------------|10~~----------------------------|
B |x---------------x---------------|x-------------------------------|
F#|9~~~------------5~~-------------|8~~~----------------------------|
B |----0---0-0---0-----0---0-0---0-|----0---0-0---------------------| 

C#|--------------------------------|--------------------------------|
G#|--------------------------------|--------------------------------|
E |11~~------------7~~-------------|10~~----------------------------|
B |x---------------x---------------|x---------------6-----6-----5---|
F#|9~~~------------5~~-------------|8~~~------------6-----6-----5---|
B |----0---0-0---0-----0---0-0---0-|----0---0-0---0-6-----6-----5---| 

C#|--------------------------------|--------------------------------|
G#|--------------------------------|--------------------------------|
E |11~~------------7~~-------------|10~~------------7~~-------------|
B |x---------------x---------------|x---------------x---------------|
F#|9~~~------------5~~-------------|8~~~------------5~~-------------|
B |----0---0-0---0-----0---0-0---0-|----0---0-0---0-----0---0-0---0-| 

Chorus
C#|--------------------------------|--------------------------------|
G#|-----------------17------15-----|12---------------10-------------|
E |11------14-------x-------x------|13---------------9--------------|
B |x-------x--------14------12-----|11---------------10-------------|
F#|9-------12----------------------|0----------------0--------------|
B |0-------0--------0-------0------|--------------------------------| 

C#|--------------------------------|--------------------------------|
G#|-----------------19------14-----|12---------------10-------------|
E |11------14-------x-------x------|13---------------9--------------|
B |x-------x--------16------11-----|11---------------10-------------|
F#|9-------12----------------------|0----------------0--------------|
B |0-------0--------0-------0------|--------------------------------| 

Outro
C#|----------------------|----------------------|
G#|----------------------|----------------------|
E |6---------------------|----------------------|
B |4----------9----------|11--------------------|
F#|4----------7----------|9---------------------|
B |4----------7----------|0---------------------|

************************************

| /   slide up
| \   slide down
| h   hammer-on
| p   pull-off
| ~   vibrato
| +   harmonic
| x   Mute note
| b   Bend
| pb  Pre-bend
| br  Bend release
| pbr Pre-bend release
| brb Bend release bend

************************************
Добавлено: 10.05.2016
Другие материалы по этой песне:
  • Аккорды и текст

Страница создана 10.05.2016
http://primanota.ru/art-of-scarlet/alyssum-chords.htm
Привет, Гость.
Предлагаем пройти революционный курс по гитаре.
Подарок от PrimaNota.Ru, забирай!