PrimaNota.ru - самый крупный в мире бесплатный архив песенных текстов, аккордов, табулатур и нот


Art Of Dying - Straight Across My Mind - текст песни, таба, видео

Регистрация Запомнить меня
Войти через:  Facebook Google Twitter Vk Yandex Mail.ru

Art Of Dying - Straight Across My Mind - текст песни, таба, видео

Печатать
Просмотров: 328
Уроки эстрадного вокала в Санкт-Петербурге
Artist =  Art of Dying
Song   =  Straight Across My Mind
Album  =  Vices And Virtues



---------------------------------------------------------------------------
LEGEND:
<#>  =  natural harmonic.. (lightly touch your fingure over the indicated
        fret and pick the note)
 #~  =  give the indicated note a slight wammy
---------------------------------------------------------------------------


Play the first riff (or most of the first and throw in the second riff to
change it up if you want) for a about 15 seconds, first you'll hear the
bass go then after a few beats Johnny says "here we go.." then you switch
over to intro riff #2..
INTRO RIFFS #1
Guitar 1                                        Repeat x3
D#| |--------------|--------------------------------------| |
A#|o|--------------|---<5>-------<7>~----<5>-------<7>~---|o|
F#| |--<7>--<5>~---|-------<5>~--------------<5>~---------| |
C#| |--------------|--------------------------------------| |
G#|o|--------------|--------------------------------------|o|
C#| |--------------|--------------------------------------| |
Guitar 2                                                     Repeat x3
D#|----------------| |------------------------------------|------------| |
A#|----------------|o|------------------------------------|------------|o|
F#|----------------| |------------------------------------|-----<5>~---| |
C#|----------------| |------------------------------------|-<5>--------| |
G#|----------------|o|--------------------------<7>-<5>---|------------|o|
C#|----------------| |------------------------------------|------------| |



INTRO RIFF #2
"here we go.."
D#|----------------------------------------------------------|
A#|-----------------<5>-------<7>~----<5>--------------------|
F#|--<7>--<5>~----------<5>~---------------------------------|
C#|----------------------------------------------------------|
G#|-----------------------------------------9-9-9-9-9-8-8-8--|
C#|-----------------------------------------7-7-7-7-7-6-6-6--|
This riff dosn't have the 2nd guitar behind it, it's just played along with
the bass and then drums for the chord part.




This is the main riff i believe.. This riff leads up to the verse and is
also played after the 1st chorus and as the outro..
Guitar 1 plays this 4 times and guitar 2 comes in with a higher octave of
this after the 2nd time.
MAIN RIFF. 
D#| |----------------------------------------------------------------| |
A#|o|----------------------------------------------------------------|o|
F#| |----------------------------------------------------------------| |
C#| |--4-4---4-5-4---4-4-4-4-4-7-4--4-4-4--4-5-4--4-7-7-7-7-7-6-6-6--| |
G#|o|--4-4---4-5-4---4-4-4-4-4-7-4--4-4-4--4-5-4--4-7-7-7-7-7-6-6-6--|o|
C#| |--0-2---2-3-2---2-0-2-2-2-5-2--2-0-2--2-3-2--2-5-5-5-5-5-4-4-4--| |


This is the guitar 2 for main riff.. play it after playing the riff above twicce.
D#|-----------------------------------------------------------------------------------------|
A#|-----------------------------------------------------------------------------------------|
F#|-----------------------------------------------------------------------------------------|
C#|--9-11---11-12-11--11-9-11-11-11-17-11---11-9-4---11-12-11--11-15-15-15-15-15-14-14-14--|
G#|--9-11---11-12-11--11-9-11-11-11-17-11---11-9-4---11-12-11--11-15-15-15-15-15-14-14-14--|
C#|--7-9-----9-10-9----9-7--9--9--9-12--9----9-7-9----9-10-9----9-12-12-12-12-12-11-11-11--|

Then this before the chorus..
D#|-----------------------------------------------------------------------------------------|
A#|-----------------------------------------------------------------------------------------|
F#|-----------------------------------------------------------------------------------------|
C#|--9-11---11-12-11--11-9-11-11-11-17-11---11-9-4---11-12-11--11-15-15-15-15-15-17-17-17--|
G#|--9-11---11-12-11--11-9-11-11-11-17-11---11-9-4---11-12-11--11-15-15-15-15-15-17-17-17--|
C#|--7-9-----9-10-9----9-7--9--9--9-12--9----9-7-9----9-10-9----9-12-12-12-12-12-15-15-15--|







I figured out the back-up guitar to the verse and the chorus.. but I still
dont know the main guitar for those riffs.. so i'll post them once i figure
it out. 

This is my first tab so it might not be right, but it sounds close enough
to me..
I havn't figured out the verse or anything else yet but when i do i'll add
on to this.

Enjoy :)   \m/  ( -_-) \m/
Добавлено: 24.05.2012
Вам также может быть интересно:
Другие материалы по этой песне:
  • Аккорды и текст

Страница создана 24.05.2012
http://primanota.ru/art-of-dying/straight-across-my-mind-chords.htm
Привет, Гость.
Предлагаем пройти революционный курс по гитаре.
Подарок от PrimaNota.Ru, забирай!