PrimaNota.ru - самый крупный в мире бесплатный архив песенных текстов, аккордов, табулатур и нот


Art Of Dying - Raining - текст песни, таба, видео

Регистрация Запомнить меня
Войти через:  Facebook Google Twitter Vk Yandex Mail.ru

Art Of Dying - Raining - текст песни, таба, видео

Печатать
Просмотров: 352
Уроки эстрадного вокала в Санкт-Петербурге
-------------------------------------------------------------------------------
                             RAINING Ft. Adam Gontier - Art of Dying
-------------------------------------------------------------------------------
Tabbed by: awkacz14
E-mail: 

Tuning: drop C#

Rhythm and lead- distortion
Guitar 3- low volume fuz

Intro/Verse

Lead Guitar 
D#|----------------------------------------------------------------------|
A |----------------------------------------------------------------------|
F#|----------------------------------------------------------------------|
C#|---------------------14--12----------------------14--12---------------|
G#|--------12--15----------------------12----15--------------------------|
C#|----------------------------------------------------------------------|

Rhythm guitar 
D#|----------------------------------------------------------------------|
A |----------------------------------------------------------------------|
F#|----------------------------------------------------------------------|
C#|----------------------------------------------------------------------|
G#|---7--(x16)-----10-(x15)----0-----------------------------------------|
C#|---7------------10----------0-----------------------------------------|

Guitar 3
D#|----------------------------------------------------------------------|
A |----------------------------------------------------------------------|
F#|----------------------------------------------------------------------|
C#|----------------------------------------------------------------------|
G#|---7-(x16)-----10-(x15)--0--------------------------------------------|
C#|---7-----------10--------0--------------------------------------------|
Repeat this x6

Pre-Chorus

lead/rhythm/guitar3
(mute 1 out of every 4. ex[ 0***0***] didn't feel like putting the whole thing out but if you understand music 
and listen to the song this will make sense)
D#|------------------------------------------------------------------|
A |------------------------------------------------------------------|
F#|------------------------------------------------------------------|
C#|---2--2-2-2-2-2-2----3-3-3-3-3-3-3--------------------------------| X2 (on last round play 3s no mutes)
G#|---2--2-2-2-2-2-2----3-3-3-3-3-3-3--------------------------------|
C#|---2--2-2-2-2-2-2----3-3-3-3-3-3-3--------------------------------|
Chorus- STEP ON THE FUZ

All guitars

D#|---------------------------------------------------------------|
A |---------------------------------------------------------------|
F#|---------------------------------------------------------------|
C#|----7-7-7-7--10-10-10-10--5-5-5-5--0-0-0-0---------------------|  x3
G#|----7-7-7-7--10-10-10-10--5-5-5-5--0-0-0-0---------------------|
C#|----7-7-7-7--10-10-10-10--5-5-5-5--0-0-0-0---------------------|

D#|-------------------------------------------------------------------|
A |-------------------------------------------------------------------|
F#|-------------------------------------------------------------------|
C#|------7-7-7-7--5-5-5-5--3-3-3-3------------------------------------|
G#|------7-7-7-7--5-5-5-5--3-3-3-3------------------------------------|
C#|------7-7-7-7--5-5-5-5--3-3-3-3------------------------------------|

verse
pre-chorus
chorus


solo (rhythm and 3 play the verse chords)

lead
D#|-----------------------------|------------------------|-------|
A |-----------------------------|------------------------|-------|
F#|-----------------------------|---9-9-9-9-10-10-10-10--|--x3---|
C#|-------9h10p9-10--9h10p9-10--|------------------------|-------|
G#|-----------------------------|------------------------|-------|
C#|-----------------------------|------------------------|-------|

D#|----------------------------------------------------------|
A |----------------------------------------------------------|
F#|-----------5h7/9------------------------------------------|
C#|----5h7----------------9h10p9-10--9h10p9--10--------------|
G#|----------------------------------------------------------|
C#|----------------------------------------------------------|



chorus with first part clean 

repeat chorus until the end of the song

************************************

| /   slide up
| \   slide down
| h   hammer-on
| p   pull-off
| ~   vibrato
| +   harmonic
| x   Mute note
| b   Bend
| pb  Pre-bend
| br  Bend release
| pbr Pre-bend release
| brb Bend release bend

************************************
Добавлено: 06.10.2015
Другие материалы по этой песне:
  • Аккорды и текст

Страница создана 05.08.2014
http://primanota.ru/art-of-dying/raining-chords.htm
Привет, Гость.
Предлагаем пройти революционный курс по гитаре.
Подарок от PrimaNota.Ru, забирай!