PrimaNota.ru - самый крупный в мире бесплатный архив песенных текстов, аккордов, табулатур и нот


Art Lord And The Self-portraits - Lantern Sigh - бас-таба, видео

Регистрация Запомнить меня
Войти через:  Facebook Google Twitter Vk Yandex Mail.ru

Art Lord And The Self-portraits - Lantern Sigh - бас-таба, видео

Печатать
Просмотров: 81
-------------------------------------------------------------------------------
               Lantern Sigh - Art Lord & The Self Portraits
-------------------------------------------------------------------------------

Tuning: Standard

Main Riff:

G|---------------------------------------------------------------------------|
D|---------------------------------------------------------------------------|
A|------------------3-3-3-------------------3-3-3----------------------------|
E|--5-5-5-5-5-5-5-5-------3-3-3-3-3-3-3-3-3----------------------------------|

Secondary Riff:

G|---------------------------------------------------------------------------|
D|--------------5-5-5-5------------------------------------------------------|
A|------3-3-------------7-5-3------------------------------------------------|
E|--3-3-----5-5--------------------------------------------------------------|

G|---------------------------------------------------------------------------|
D|--------------5-5-2--------------------------------------------------------|
A|------3-3-----------5-3----------------------------------------------------|
E|--3-3-----5-5--------------------------------------------------------------|

Song Format:

Main Riff 11x
Secondary Riff 2x
Main Riff 6x
Secondary Riff 2x
Main Riff 14x
Secondary Riff 2x
Main Riff 2x
Добавлено: 31.07.2015
Другие материалы по этой песне:
  • Аккорды и текст

Страница создана 31.07.2015
http://primanota.ru/art-lord-and-self-portraits/lantern-sigh-chords.htm
Привет, Гость.
Предлагаем пройти революционный курс по гитаре.
Подарок от PrimaNota.Ru, забирай!