PrimaNota.ru - самый крупный в мире бесплатный архив песенных текстов, аккордов, табулатур и нот


Art Brut - Unprofessional Wrestling - бас-таба, видео

Регистрация Запомнить меня
Войти через:  Facebook Google Twitter Vk Yandex Mail.ru

Art Brut - Unprofessional Wrestling - бас-таба, видео

Печатать
Просмотров: 140
Уроки эстрадного вокала в Санкт-Петербурге
----------------------------------------------------------------------------
                      Unprofessial Wrestling – Art Brut
----------------------------------------------------------------------------


www.myspace.com/artbrut


Tabbed By : Waswares

Tuning: Standart


Intro:

G|--------------------------|
D|--------------------------|
A|-3---2-3---2-0------------| 
E|---3-----3-----0-4-5-0-4--|

Verse:

G|-----------------------------|
D|-----------------------------|
A|-77777777-44444444-----------|
E|-------------------44444444--|

Chorus:

G|--------------------------|
D|--------------------------|
A|-3---2-3---2-0------------| 
E|---3-----3-----0-4-5-0-4--|


Verse:

G|-----------------------------|
D|-----------------------------|
A|-77777777-44444444-----------|
E|-------------------44444444--|

Chorus:

G|--------------------------|
D|--------------------------|
A|-3---2-3---2-0------------| 
E|---3-----3-----0-4-5-0-4--|

Bridge:

G|-----------------------------|
D|-----------------------------|
A|-77777777-44444444-----------|
E|-------------------44444444--|

Verse:

G|-----------------------------|
D|-----------------------------|
A|-77777777-44444444-----------|
E|-------------------44444444--|

Chorus:

G|--------------------------|
D|--------------------------|
A|-3---2-3---2-0------------| 
E|---3-----3-----0-4-5-0-4--|


| /  slide up
| \  slide down
| h  hammer-on
| p  pull-off
| ~  vibrato
| +  harmonic
| x  Mute note
============================================================================
Добавлено: 31.05.2012
Другие материалы по этой песне:
  • Аккорды и текст

Страница создана 31.05.2012
http://primanota.ru/art-brut/unprofessional-wrestling-chords.htm
Привет, Гость.
Предлагаем пройти революционный курс по гитаре.
Подарок от PrimaNota.Ru, забирай!