PrimaNota.ru - самый крупный в мире бесплатный архив песенных текстов, аккордов, табулатур и нот


Art Brut - Post Soothing Out - текст песни, таба, видео

Регистрация Запомнить меня
Войти через:  Facebook Google Twitter Vk Yandex Mail.ru

Art Brut - Post Soothing Out - текст песни, таба, видео

Печатать
Просмотров: 126
Title: Post Soothing Out
Artist: Art Brut
Album: It's a Bit COmplicated
Tabbed by: SSlumplead
Email:timthecoleman@gmail.com

This is my second tab, I don't have guitar pro and the only tabs for this I 
could found used it. Since I had a run in with the FCC, I had to figure this 
out the hard way, looping it in Sound forge till I found the notes. I still 
don't know how to show timing effectively so I hope my dash method works. I 
love this song btw.
Tuning:EADGBe

Lead Guitar:Intro and throughout, have your over drive to about five or six, 
and use the bridge pick ups on a two way, or fourth position if you have a 
five way on a H-S-S.
 If you're alternate picking,the gaps of three dashes (---) should be as 
long as a skipped stroke, once you get the tempo down it fits perfectly,
same goes for note changes. 
e|-------------------------------------------------|  Repeat 2x
B|-------------------------------------------------|
G|-----10---10-9-7-9-------------------------------|
D|-----------------------10---7---10---------------|
A|-8-----------------------------------------------|
E|-------------------------------------------------|

e|-------------------------------------------------|  Repeat 2x
B|-------------------------------------------------|
G|-----10----10-9-7-9------------------------------|
D|-8-------------------10---8---10-----------------|
A|-------------------------------------------------|
E|-------------------------------------------------|

 Chorus: Take your time with the slides and hold the ending notes. The first 
slide, ten to eight don't really play the F(10th fret) so much as start the 
slide from there, as in the second your pick contacts the strings, start 
your slide.
e|-------------------------------------------------|  Repeat 2x
B|-------------------------------------------------|
G|-------------------------------------------------|
D|-------------------------------------------------|
A|-10\8--8/10-----10/12---------12/15--------------|
E|-------------------------------------------------|


************************************

| /   slide up
| \   slide down
| h   hammer-on
| p   pull-off
| ~   vibrato
| +   harmonic
| x   Mute note
| b   Bend
| pb  Pre-bend
| br  Bend release
| pbr Pre-bend release
| brb Bend release bend

************************************
Добавлено: 01.03.2012
Другие материалы по этой песне:

Страница создана 01.03.2012
http://primanota.ru/art-brut/post-soothing-out-chords.htm
Привет, Гость.
Предлагаем пройти революционный курс по гитаре.
Подарок от PrimaNota.Ru, забирай!