PrimaNota.ru - самый крупный в мире бесплатный архив песенных текстов, аккордов, табулатур и нот


Art Brut - Demons Out - бас-таба, видео

Регистрация Запомнить меня
Войти через:  Facebook Google Twitter Vk Yandex Mail.ru

Art Brut - Demons Out - бас-таба, видео

Печатать
Просмотров: 144
----------------------------------------------------------------------------
                          Demons Out! - Art Brut
----------------------------------------------------------------------------


www.myspace.com/artbrut


Tabbed By : Waswares

Tuning: Standard


Intro:

G|------|
D|------|
A|-6~~--|
E|------|

Verse:

G|----------------------|
D|----------------------|
A|-6-66------3-33-------|
E|------3-33------6-66--|

Chorus:

G|------------------------------------------|
D|-5555-3333-----------3333-----------------|
A|-----------6666-5555------6666-5555-3333--|
E|------------------------------------------|

Verse:

G|----------------------|
D|----------------------|
A|-6-66------3-33-------|
E|------3-33------6-66--|

Chorus:

G|------------------------------------------|
D|-5555-3333-----------3333-----------------|
A|-----------6666-5555------6666-5555-3333--|
E|------------------------------------------|

Bridge:

G|----------------------   --------------------|
D|----------------------   --------------------|
A|-5-66-5-66-5-66-5-66--   -5-6-5-6-5-6-5-6-5--|
E|----------------------   --------------------|

G|------------------------------------------|
D|-5555-3333-----------3333-----------------|
A|-----------6666-5555------6666-5555-3333--|
E|------------------------------------------|

G|------------------------------------3333--|
D|-------------------------3333-55555-------|
A|----------3333-5555-6666------------------|
E|-3333-6666--------------------------------|

G|-----------------------|
D|-----------------------|
A|----------3333-5555-6--|
E|-333-6666--------------|


| /  slide up
| \  slide down
| h  hammer-on
| p  pull-off
| ~  vibrato
| +  harmonic
| x  Mute note
============================================================================
Добавлено: 17.07.2012
Другие материалы по этой песне:
  • Аккорды и текст

Страница создана 17.07.2012
http://primanota.ru/art-brut/demons-out-chords.htm
Привет, Гость.
Предлагаем пройти революционный курс по гитаре.
Подарок от PrimaNota.Ru, забирай!