PrimaNota.ru - самый крупный в мире бесплатный архив песенных текстов, аккордов, табулатур и нот


Art Brut - 18000 Lira - текст песни, таба, видео

Регистрация Запомнить меня
Войти через:  Facebook Google Twitter Vk Yandex Mail.ru

Art Brut - 18000 Lira - текст песни, таба, видео

Печатать
Просмотров: 145
Art Brut
18,000 Lira
by 
highlydeveloped

intro:

guitar right
E-------------------------------------------------|
B-------------------------------------------------|
G-------------------------------------------------|
D-------------------------------------------------|   1x
A-------------------------------------------------|
E-------------------------------------------------|
guitar left
E-------------------------------------------------|
B-------------------------------------------------|
G-------------------------------------------------|
D----------------------------------10---10-10-----|   1x
A----------------------------------10---10-10-----|
E----------------------------------8----8--8------|
bass
G-------------------------------------------------|
D-------------------------------------------------|   1x
A-2--2--0--0--2--2--0--0--2--2--0--3-----3--3--0--|
E-------------------------------------------------|

Chorus:

guitar right
E-7--7--5--5--7--7--5--5--7--7--5--8----8--8--7---|
B-7--7--5--5--7--7--5--5--7--7--5--8----8--8--7---|
G-8--8--6--6--8--8--6--6--8--8--6--9----9--9--8---|
D-9--9--7--7--9--9--7--7--9--9--7--10---10-10-9---|   4x
A-9--9--7--7--9--9--7--7--9--9--7--10---10-10-9---|
E-7--7--5--5--7--7--5--5--7--7--5--8----8--8--7---|
guitar left
E-------------------------------------------------|
B-x--x--x--x--x--x--x--x--x--x--x-----------------|
G-9--9--9--9--9--9--9--9--9--9--9-----------------|
D-x--x--x--x--x--x--x--x--x--x--x--10---10-10-----|    4x
A----------------------------------10---10-10-----|
E----------------------------------8----8--8------|
bass
G-------------------------------------------------|
D-------------------------------------------------|
A-2--2--0--0--2--2--0--0--2--2--0--3-----3--3--0--|  
E-------------------------------------------------|    4x

Verse:
Part 1
guitar right
E-12----10----------------------------------------|
B-------------13----12----10-------------9--------|
G----------------------------12----11^---9--------|
D-------------------------------------------------|   1x
A-------------------------------------------------|
E-------------------------------------------------|
guitar left
E-------------------------------------------------|
B----------------------------------8-----7--------|
G-8--8--------8--8--------8--8--------------------|
D-9--9--------9--9--------9--9--------------------|   1x
A-9--9--------9--9--------9--9--------------------|
E-7--7--------7--7--------7--7--------------------|
bass
G-------------------------------------------------|
D-------------------------------------------------|   1x
A-------------------------------------------------|
E-------------------------------------------------|

Part2
guitar right
E----12-10------------------------------------1212|
B-------------13----12----10-------------9--------|
G----------------------------12----11^---9--------|
D-------------------------------------------------|   1x
A-------------------------------------------------|
E-------------------------------------------------|
guitar left
E-------------------------------------------------|
B----------------------------------8-----7--------|
G-8--8--------8--8--------8--8--------------------|
D-9--9--------9--9--------9--9--------------------|   1x
A-9--9--------9--9--------9--9--------------------|
E-7--7--------7--7--------7--7--------------------|
bass
G-------------------------------------------------|
D-------------------------------------------------|   1x
A-------------------------------------------------|
E-------------------------------------------------|

Part 3
guitar right
E-12----10----------------------------------------|
B-------------13----12----10-------------9--------|
G----------------------------12----11^---9--------|
D-------------------------------------------------|   1x
A-------------------------------------------------|
E-------------------------------------------------|
guitar left
E-------------------------------------------------|
B----------------------------------8-----7--------|
G-8--8--------8--8--------8--8--------------------|
D-9--9--------9--9--------9--9--------------------|   1x
A-9--9--------9--9--------9--9--------------------|
E-7--7--------7--7--------7--7--------------------|
bass
G-------------------------------------------------|
D-------------------------------------------------|   1x
A-------------------------------------------------|
E-------------------------------------------------|

Part4
guitar right
E----12-10----------------------------------------|
B-------------13----12----10-------------9--------|
G----------------------------12----11^---9--------|
D-------------------------------------------------|   1x
A-------------------------------------------------|
E-------------------------------------------------|
guitar left
E-------------------------------------------------|
B----------------------------------8-----7--------|
G-8--8--------8--8--------8--8--------------------|
D-9--9--------9--9--------9--9--------------------|   1x
A-9--9--------9--9--------9--9--------------------|
E-7--7--------7--7--------7--7--------------------|
bass
G-------------------------------------------------|
D-------------------------------------------------|   1x
A-------------------------------------------------|
E-------------------------------------------------|

The only deference between the parts in the verse, is the timing and playing of the first note(right guitar)

ending
guitar right
E-------------------------7^-7^-7^-7^-7^-7^-7^-7^-|
B-------------------------------------------------|
G-------------------------------------------------|
D-------------------------------------------------|   1x
A-------------------------------------------------|
E-------------------------------------------------|
guitar left
E-------------------------------------------------|
B-------------------------------------------------|
G-------------------------------------------------|
D-------------------------------------------------|   1x
A-------------------------------------------------|
E-------------------------------------------------|
bass
G-------------------------------------------------|
D-------------------------------------------------|   1x
A-------------------------------------------------|
E-------------------------------------------------|
guitar right
E-7--7--5--5--7--7--5--5--7--7--5--8----8--8--7---|
B-7--7--5--5--7--7--5--5--7--7--5--8----8--8--7---|
G-8--8--6--6--8--8--6--6--8--8--6--9----9--9--8---|
D-9--9--7--7--9--9--7--7--9--9--7--10---10-10-9---|   1x
A-9--9--7--7--9--9--7--7--9--9--7--10---10-10-9---|
E-7--7--5--5--7--7--5--5--7--7--5--8----8--8--7---|


guitar left
E-------------------------------------------------|
B-x--x--x--x--x--x--x--x--x--x--x-----------------|
G-9--9--9--9--9--9--9--9--9--9--9-----------------|
D-x--x--x--x--x--x--x--x--x--x--x--10---10-10-----|    1x
A----------------------------------10---10-10-----|
E----------------------------------8----8--8------|
bass
G-------------------------------------------------|
D-------------------------------------------------|
A-2--2--0--0--2--2--0--0--2--2--0--3-----3--3--0--|  
E-------------------------------------------------|    1x
guitar right
E-7-
B-7-|
G-8-|
D-9-|  
A-9-|
E-7-|
guitar left
E-- |
B-x-|
G-9-|
D-x-|  
A---|
E---|
bass
G---|
D---|
A-2-|  
E---|  

whole song:
intro
chorus
verse
chorus 
verse
chorus
ending

I think it's nearly perfect and it's great fun to play
Добавлено: 17.05.2012
Другие материалы по этой песне:
  • Аккорды и текст

Страница создана 13.05.2012
http://primanota.ru/art-brut/18000-lira-chords.htm
Привет, Гость.
Предлагаем пройти революционный курс по гитаре.
Подарок от PrimaNota.Ru, забирай!