PrimaNota.ru - самый крупный в мире бесплатный архив песенных текстов, аккордов, табулатур и нот


Arsonists Get All The Girls - Neck Of The Contrast - бас-таба, видео

Регистрация Запомнить меня
Войти через:  Facebook Google Twitter Vk Yandex Mail.ru

Arsonists Get All The Girls - Neck Of The Contrast - бас-таба, видео

Печатать
Просмотров: 113
Новый альбом группы 'Черный Кузнец' по культовому сериалу 'Сверхъестественное'!
Neck of the Contrast

Drop C Tuning CGCFAD


F[-------------------------------------6-6/9-9-----------------------------------]
C[-~---------------------------------5-------------------------------------------]
G[---4~-4---4~--3h4p3-1h3---4~-4--4~-------------4~-4---4~--3h4p3-1h3---4~-4-----]
C[-5---5-55---5-----------5---5-55--5----------5---5-55---5-----------5---5-5-5*-]

Drum Break

F[-------------------------------------6-6/9-9---------------------------------------]
C[-~---------------------------------5-----------------------------------------------]
G[---4~-4---4~--3h4p3-1h3---4~-4--4~-------------4~-4---4~--3h4p3-1h3---4~-4---------]
C[-5---5-55---5-----------5---5-55--5----------5---5-55---5-----------5---5-5555/ (tremello slide to 24th Fret)

^ = Quarter Bend

F[---------------------------|----------------(x3)------------|----------------------------]
C[-(x8)---(x8 Follow Rhythm)-|------------------------------0-|----------------------------]
G[---------------------------|--------------------------------|----------------------------]
C[-0------8------------------|-00-1^-00-0~~00-4^-00-3-5\4-2---|-00-1^-00-0~~00-4^-00-3-0*--]


F[------------------------------------(PAUSE)------------------------]
C[-~-------1----------------7------------------------------------0---]
G[-----------3---1/3----------5--------------------------------------]
C[-1-0-4-1-----4-----5h8p5-4----4--1-4^------1-0-4-1-1^-1^-5p3-2-----]


F[-----------------------------------------------------------7-10------](x2)
C[-~-------1-----------------------------------------4-7-6-9-----------]
G[-----------3---1/3-----------------------------4-7-------------------]
C[-1-0-4-1-----4-----5h8p5-0-4-3-0-3-1-0-1-1/4-4~----------------------]

Riff Order = A,B,A,C,A,B,A,D

Riff A               Riff B                Riff C


F[------------------|-------------------4*|-------------------------]
C[-~----------------|---------------------|-----5~------------------]
G[-0h2-2*-0h2-2*-2*-|---0h2-2*-2*-0h2h3---|---5~--5~----------------]
C[------------------|---------------------|-5~-------5~-------------]

Riff D

F[-Slide Up-Slide Down-Slide Up-------------------------------------]
C[-~----------------------------------------------------------------]
G[------------------------------------------------------------------]
C[-12\------/15--------12/------------------------------------------]

Keyboard Break

F[------------------------------------------------------------------]
C[-~----------------------------------------------------------------]
G[-----2-3-------2-----1--------------------------------------------]
C[-0-3-----6-3-0---3-0---2-0-3-6------------------------------------]
Добавлено: 31.05.2014
Другие материалы по этой песне:
  • Аккорды и текст

Страница создана 31.05.2014
http://primanota.ru/arsonists-get-all-the-girls/neck-of-contrast-chords.htm
Привет, Гость.
Предлагаем пройти революционный курс по гитаре.
Подарок от PrimaNota.Ru, забирай!