PrimaNota.ru - самый крупный в мире бесплатный архив песенных текстов, аккордов, табулатур и нот


Arsonists Get All The Girls - Limbo - бас-таба, видео

Регистрация Запомнить меня
Войти через:  Facebook Google Twitter Vk Yandex Mail.ru

Arsonists Get All The Girls - Limbo - бас-таба, видео

Печатать
Просмотров: 108
Уроки эстрадного вокала в Санкт-Петербурге
Limbo

Drop C Tuning CGCFAD


Intro Order - Riff A x5, Bx1, Ax1, Bx1, Ax1, Cx1, Ax1, Bx1, Ax1, Cx1

      Riff A         Riff B       Riff C

F[------------(x5)-|-----------|------------------------------------]
C[-~---------------|-----------|------------------------------------]
G[-~---------------|-----------|---------6-5-5~---------------------]
C[-0-5-0-3-0-2-0-3-|-6666-5555-|-0-5-6-5----------------------------]


F[-----------------|-----------------|------------------------------]
C[-~---------------|-----------------|---------5--------------------]
G[-~---------------|---------6-7-----|-----------6-5----------------]
C[-0-5-0-3-0-2-0-3-|-0-5-6-8-----8-6-|-0-5-6-8-------8--------------]


F[-------------------5-(x4)-|(Cut Off x8--Ring Out x2--Cut Off x 2)-]
C[-~-----------5h6h8--------|---------------------------------------]
G[-~-----5h6h8--------------|---------------------------------------]
C[-5h6h8--------------------|-00---00-00----00-00-00-00-00---00-00--]

Short Pause

F[-----------------| (x6) |---------(Cut Off*)------| (x2) |-(Cut Off*)----------------------|
C[-~-5-7-8---------|      |---5-7-8-----------------|      |---------------------------------|
G[-4~------8-7-5-4-|      |-4-----------------------|      |---------------------------------| 
C[-----------------|      |---------00*-00*-00*-00*-|      |-00*-00*-00*-00*-00*-00*-00*-00*-|


F[------------------------------------------------------------------](x4)
C[-~----------------------------------------------------------------]
G[-~----------------------------------------------------------------]
C[-333333-222222-777777-666666--------------------------------------]


F[-----------| (x4) |-----------------------------------|(x4)|------]
C[-~---------|      |-----------------5h8-4h7-----------|    |------]
G[-~---------|      |-----5h8-4h7-3h6---------55-8-44-7-|    |------]
C[-000000-00-|      |-5h8-------------------------------|    |-0*---]
Добавлено: 03.07.2014
Другие материалы по этой песне:
  • Аккорды и текст

Страница создана 03.07.2014
http://primanota.ru/arsonists-get-all-the-girls/limbo-chords.htm
Привет, Гость.
Предлагаем пройти революционный курс по гитаре.
Подарок от PrimaNota.Ru, забирай!