PrimaNota.ru - самый крупный в мире бесплатный архив песенных текстов, аккордов, табулатур и нот


Arsonists Get All The Girls - I Lost My Loss Of Ruin - бас-таба, видео

Регистрация Запомнить меня
Войти через:  Facebook Google Twitter Vk Yandex Mail.ru

Arsonists Get All The Girls - I Lost My Loss Of Ruin - бас-таба, видео

Печатать
Просмотров: 115
Новый альбом группы 'Черный Кузнец' по культовому сериалу 'Сверхъестественное'!
I Lost My Loss of Ruin

Drop C Tuning CGCFAD



F[------|------------------------------(x2)-|---------------------------]
C[-~----|-----------------------------------|---------------------------]
G[------|-----------------------------------|---------------------------]
C[-0-0*-|--------4-3-00-2-3-00-4-3-0-2-3-0*-|-4-3-00-2-3-00-4-3-00-2-3*-]


F[------------------| (x3) | ---------------------------------------](x2)
C[-~----------------|      |----------------------------------------]
G[-3---------4-3----|      |-3-33-333-4-44-444----------------------]
C[---0-2-3-0----4-3-|      |----------------------------------------]

F[--------------------------------------------------------------------------](x2)
C[-~------------------------------------------------------------------------]
G[-8-88-888--3-33-333-4-44-444-1-11-111-8-88-888-3-33-333-4-44-444-5-55-555-]
C[--------------------------------------------------------------------------]

F[-----------------------------------](x4)
C[-~---------------------------------]
G[-8-8-8-8-3-3-3---------------------]
C[---------------4~~3~~4-3-3-3-3-----]

F[--------9-12-9-------------9-12-9------------7-10-7-----------7-10-7-------](x2)
C[-~----9--------9---------9--------9--------7--------7-------7--------7-----]
G[-7-10------------10-7-10------------10-5-8------------8-5-8------------8---]
C[---------------------------------------------------------------------------]

F[-------11h14-T18-|
C[-~--12-----------|
G[-13--------------|
C[-----------------|

F[---------------------------------------------------------------------------6-](x2)
C[-~---4---7-5-4---4-----------------------------2h3p2-------------------6-----]
G[---4---5-------5-----5-------------------------------3-2-0-0/4-44-4-44---4---]
C[-4-----------------7---7-8-5-7-3-5-0-2-22-2-22-------------------------------]

F[-------|----------------------------------------------------------------]
C[-~-----|----------------------------------------------------------------]
G[-/12~~~|----------------------------------------------------------------]
C[-------|-0-1-2-3-4-0-1-2-3-4-0-1-2-3-4-0-1-2-3-4-0-1-2-3-4-0-1-2-3-4-0*-]
Добавлено: 04.07.2014
Другие материалы по этой песне:
  • Аккорды и текст

Страница создана 04.07.2014
http://primanota.ru/arsonists-get-all-the-girls/i-lost-my-loss-of-ruin-chords.htm
Привет, Гость.
Предлагаем пройти революционный курс по гитаре.
Подарок от PrimaNota.Ru, забирай!