PrimaNota.ru - самый крупный в мире бесплатный архив песенных текстов, аккордов, табулатур и нот


Arsonists Get All The Girls - Bottle City - бас-таба, видео

Регистрация Запомнить меня
Войти через:  Facebook Google Twitter Vk Yandex Mail.ru

Arsonists Get All The Girls - Bottle City - бас-таба, видео

Печатать
Просмотров: 166
Новый альбом группы 'Черный Кузнец' по культовому сериалу 'Сверхъестественное'!
Bottle City


Drop C Tuning CGCFAD

F[------------------------------------------------------------------]
C[-~----------------------------------------------------------------]
G[-6-5------6-5----------6-5-------6-5---(Pause)--------------------]
C[---------------111111---------------------------------------------]

F[------------------------------------------------------------------](x2)
C[-~----------------------------------------------------------------]
G[-6-5------6-5----------6-5-------6-5--8888888---------------------]
C[---------------111111---------------------------------------------]


F[------------------------------------------------------------------](x2)
C[-~----------------------------------------------------------------]
G[-4-3---4-3-------4-3---4-3--6-4-3---------------------------------]
C[-----------0-1-2--------------------------------------------------]

          |Bass and Drum Break-------------}

F[-----------------------------12-12--------------------------------]
C[-~-------11-11-----11-11----------11-11---------------------------]
G[-10(x12)------10-10-----10-10----------10~~~----------------------]
C[------------------------------------------------------------------]

                | Bass and Drum Break--------------------|

F[---------------------------------------------10*-10*-10*----------]
C[-~-------------9-9---9-9---------------9-9------------------------]
G[-888888-888888----8-8---8-8-----8-8-------8-8---------------------]
C[---------------------------11-11---10-10--------------------------]


Guitar Break

    Riff A                                Riff B

F[--------------------------------------|---------------------------]
C[-~------------------------------------|---------------------------]
G[-0~----0~--0~------0~----0~--0~---/17-|--1~----1~--1~--1-1-2------]
C[----1~---1~--1~-0~---1~----1~--1~-----|----2~----2~--2~-----------]


F[-----------------------------(x2)-|-----------------------------------------(x2)-]
C[-~--------------------------------|-55555555-------------------------------------]
G[----------2-1-----3-2-----4-3-5-4-|----------13-12-------14-13-------15-14-16-15-]
C[-55555555-----2-1-----3-2---------|----------------13-12-------14-13-------------]

Guitar Break

F[-------------------------------(x2)-|
C[-~----------------------------------|
G[------------------------------------|
C[-1-2-1-2-1~~--1-2-1-2-1~~---4-5-4-5-|

F[----------------------------------------------------------(x2)----]
C[-~--------------------------17-16-15------------------------------]
G[-17-16-15-17-16-15-17-16-15---------------------------------------]
C[------------------------------------------------------------------]

F[--------------------------------------------------------------------------]
C[-~------------------------------------------------------------------------]
G[--------------------------------------------------------------------------]
C[-1-2-1-2-1~~--1-2-1-2-1~~---4-5-4-5---1-2-1-2-1~~--1-2-1-2-1~~--4-5-4-5-6-]


F[------------------------------------------------------------------]
C[-~----------------------------------------------------------------]
G[------------------------------------------------------------------]
C[-------------------2-1-2-1----------------------------------------]


Добавлено: 27.05.2014
Другие материалы по этой песне:
  • Аккорды и текст

Страница создана 27.05.2014
http://primanota.ru/arsonists-get-all-the-girls/bottle-city-chords.htm
Привет, Гость.
Предлагаем пройти революционный курс по гитаре.
Подарок от PrimaNota.Ru, забирай!