PrimaNota.ru - самый крупный в мире бесплатный архив песенных текстов, аккордов, табулатур и нот


Arsonists Get All The Girls - Avdotya - бас-таба, видео

Регистрация Запомнить меня
Войти через:  Facebook Google Twitter Vk Yandex Mail.ru

Arsonists Get All The Girls - Avdotya - бас-таба, видео

Печатать
Просмотров: 148
Новый альбом группы 'Черный Кузнец' по культовому сериалу 'Сверхъестественное'!
Avdotya

Drop C Tuning CGCFAD

F[------------------------------------------------------------------](x6)
C[-~----------------------------------------------------------------]
G[-3h4-3~-----------------------------------------------------------]
C[--------0-1-3-4-3-1-0-1-3-1---------------------------------------]

F[------------------------------------------------------------------](x4)
C[-~----------------------------------------------------------------]
G[---------5---------555---------5---------5-5-5-5-5-5-5-5-5-5-5----]
C[-0h2-0h2---0h2-0h2-----0h2-0h2---0h2-0h2--------------------------]

F[-----7----------](x4)
C[-~---------6666-]
G[-556---556------]
C[----------------]

F[---------------------------------------------(Half bend then back)](x4)
C[-~------------------------------------------------(Tremello)------]
G[---------5---------555---------5---------55555^5^5^5^5^5^5^-------]
C[-0h2-0h2---0h2-0h2-----0h2-0h2---0h2-0h2--------------------------]

F[---------|---------3--------------3--------------3-----|-(DRUM)-|--------(PAUSE)-|----7---------](X2)
C[-~-------|---------------------------------------------|-(FILL)-|----------------|----------6-6-]
G[---------|---------1--------------1--------------1-----|--------|----------------|5-6---5-6-----]
C[-5~4~3~2~|-111-111---1-1----111-1---1-1--111-111---1-1-|--------|-0~~~~~~--------|--------------]

F[-----7----------](x4) [-----4----------](x4)
C[-~---------6666-]     [-----------3333-]
G[-556---556------]     [-223---223------]
C[----------------]     [----------------]


F[---7-------------](x8) [-----------------](x8) [------------------](x4)
C[-0~--0~0/6-6-6-6-]     [-----------------]     [------------------]
G[-----------------]     [---5-------------]     [------------------]
C[-----------------]     [-0~--0~0/6-6-6-6-]     [-6*-66*-6*-666*---]

Outro Riff x2

F[------------------------------------------------------------------](x3)
C[-~----------------------------------------------------------------]
G[---------------------------------------12\------------------------]
C[-222-222-2/6--222-222-2/6\4--12p0-12p0----------------------------]

F[------------------------------------------------------------------](x1)
C[-~----------------------------------------------------------------]
G[------------------------------------------------------------------]
C[-222-222-2*-222-222-----------------------------------------------]
Добавлено: 05.05.2014
Другие материалы по этой песне:
  • Аккорды и текст

Страница создана 05.05.2014
http://primanota.ru/arsonists-get-all-the-girls/avdotya-chords.htm
Привет, Гость.
Предлагаем пройти революционный курс по гитаре.
Подарок от PrimaNota.Ru, забирай!