PrimaNota.ru - самый крупный в мире бесплатный архив песенных текстов, аккордов, табулатур и нот


Arsebreed - Bloody Posttraumatic Ejaculation - таба, видео

Регистрация Запомнить меня
Войти через:  Facebook Google Twitter Vk Yandex Mail.ru

Arsebreed - Bloody Posttraumatic Ejaculation - таба, видео

Печатать
Просмотров: 74
Song : BLOODY POSTTRAUMATIC EJACULATION 
Band : ARSEBREED
ALBUM : MUNCHING THE ROTTEN


::TABULATURE LEGEND::
 " - tremolo             h - hammer on
 ~ - vibrato             \ - slide down
 p - pull off            / - slide down
 tr - trill              ^ - pinch harmonics
 = - sustained note      b - bend string
 p.m. - palm muting      t - tapping

Tuning is D [D, G, C, F, A, D]

[Riff 1 (x4)]
||-----------------------------------------------||
||o---------------------------------------------o||
||-----------------------------------------------||
||------------9-8---------------------5--7-------||
||o-444--555--7-6-8-9-8-7-6-7-6-5-----4--6--5-5-o||
||--222--333------6-7-6-5-4-5-4-3-333-3--5-------||
    ...  ...  . . . . . . . . . . ...       . .

[Riff 2 (x3)]
||--------------------------------------------------------||
||o-9------8-7-6-------------------------------6-7-8-^---o||
||-----7---------7-6-5-------6-5-4-------4-5-6-------8~---||
||-------6-------------7-6-5-------5-3-5------------------||
||o------------------------------------------------------o||
||--------------------------------------------------------||
|   .  . . . . . . . . . . . . . . . . . . . . . . .       |
||--------------------------------------------------------||
||o--------------------------------------------------^---o||
||--10-----9-8-7-------------------------------7-8-9-8~---||
||-----9---------9-8-7-------8-7-6-------6-7-8------------||
||o------8-------------9-8-7-------7-5-7-----------------o||
||--------------------------------------------------------||
    .  . . . . . . . . . . . . . . . . . . . . . . .

[Outro]
|------------------------------------|-
|------------------------------------|-
|-12------9------10------7------8----|-
|-11------8-------9------6------7----|-
|-10------7-------8------5------6----|-
|------------------------------------|-

-|-----------------------------------------|
-|-----------------------------------------|
-|--------6------3------4------------------|
-|-4------5------2------3------6------7----|
-|-3------4------1------2------5------6----|
-|-2---------------------------4------5----|


[Outro 2 /undr bass solo/]
|------------------------|------------------------|
|------------------------|------------------------|
|------------------------|-----------6------------|
|-----------------6-5----|----------------6-5-----|
|-----------8---------6--|---6-8--------------6---|
|-3-5-----7--------------|------------------------|
  . .     . .     . . .      . .     .    . . .

[Riff 3 (x2)]
||-------------------------[x2]-||-|--------------------------|
||o----------------------------o||-|--------------------------|
||------------------7-9-8-------||-|--------------------------|
||------4-6-5-----6-------9-----||-|--------------------------|
||o-2-3-------6-5--------------o||-|-666666333333555555222222-|
||------------------------------||-|--------------------------|
|   . . . . . . . . . . . .      | | ........................ |
||------------------------------||-|--------------------------|
||o----------------------------o||-|--------------------------|
||------------------------------||-|--------------------------|
||------------------9-11-10-----||-|--------------------------|
||o-----6-8-7-----8---------11-o||-|--------------------------|
||--3-5-------8-7---------------||-|-888888555555777777444444-|
    . . . . . . . . . .  .  .        ........................

[Riff 4]
|-------------------------|-------------------------|
|-------------------------|-------------------------|
|-------------------------|-------------------------|
|-------------------------|-------------------------|
|-4/5---7\6---4/5---7\6-5-|-4/5---7\6---4/5---7\6-5-|
|-2/3-0-5\4-0-2/3-0-5\4-3-|-2/3-0-5\4-0-2/3-0-5\4-3-|
      .     .     .             .     .     .

[Riff 5 (x4)]
||---------------------------------------------------------------------------||
||o-------------------------------------------------------------------------o||
||---------------------------------------------------------------------------||
||--------------------------------------4-5-----2-3-----3-4-----1-2----------||
||o-6-7-----4-5-----5-6-----3-4---------------------------------------------o||
||------0-0-----0-0-----0-0-----0-0-0-0-----0-0-----0-0-----0-0-----0-0-0-0--||
|   . . . . . . . . . . . . . . . . . . . . . . . . . . . . . . . . . . . .   |
||---------------------------------------------------------------------------||
||o-------------------------------------------------------------------------o||
||---------------------------------------------------------------------------||
||---------------------------------------------------------------------------||
||o-------------------------------------6-7-----4-5-----5-6-----3-4---------o||
||--7-8-0-0-5-6-0-0-6-7-0-0-4-5-0-0-0-0-----0-0-----0-0-----0-0-----0-0-0-0--||
    . . . . . . . . . . . . . . . . . . . . . . . . . . . . . . . . . . . .

[RIFF 1 (x4)]

[Riff 6 (x2)]
||----------------------------------------||
||o--------------------------------------o||
||----------------------------------------||
||----------------------------------------||
||o-----------331122-8"------7"-------66-o||
||--0340660440----------7766----665555----||
    ................    ....    ........

[RIFF 2 (x3)] [RIFF 1 (x4)]

[Riff 7 (x8)]
||-----------------------------||
||o---------------------------o||
||-----------------------------||
||----------------------4---3--||
||o-6-5-2-4-5-2-4-5-------3---o||
||--4-3-0-2-3-0-2-3-0-0--------||
|   . . . . . . . . . .         |
||-----------------------------||
||o---------------------------o||
||-----------------------------||
||-----------------------------||
||o-6-5-2-4-5-2-4-5-----6---5-o||
||--4-3-0-2-3-0-2-3-0-0---5----||
    . . . . . . . . . .

[OUTRO 2] [RIFF 3 (x2)]

[Ending]
|------------------------------------------*|
|------------------------------------------*|
|------------------------------------------*|
|-----------9-8---------------------5------*|
|-444--555--7-6-8-9-8-7-6-7-6-5-----4------*|
|-222--333------6-7-6-5-4-5-4-3-333-3------*|
  ...  ...  . . . . . . . . . . ... .

END OF SONG
Добавлено: 08.07.2013
Вам также может быть интересно:
Другие материалы по этой песне:

Страница создана 08.07.2013
http://primanota.ru/arsebreed/bloody-posttraumatic-ejaculation-chords.htm
Привет, Гость.
Предлагаем пройти революционный курс по гитаре.
Подарок от PrimaNota.Ru, забирай!