PrimaNota.ru - самый крупный в мире бесплатный архив песенных текстов, аккордов, табулатур и нот


Arrogant Sons Of Bitches - Yeah I Dont Know What Its Like To Be Around A Bunch Of Hipsters - таба, видео

Регистрация Запомнить меня
Войти через:  Facebook Google Twitter Vk Yandex Mail.ru

Arrogant Sons Of Bitches - Yeah I Dont Know What Its Like To Be Around A Bunch Of Hipsters - таба, видео

Печатать
Просмотров: 199
Уроки эстрадного вокала в Санкт-Петербурге
This is the longest tab I ever made. There could be mistakes, but it sounds good
to me! This song is available for free download from Quote Unquote Records.

[Verse]

[normal chords (and by this I mean barre chords starting from 3rd fret and up -
you want them close to each other because this song gets fast!)]

 G                             D
Hey again, I hope you know you ruined my life.
    C                               G
The bitterest words are never quite sincere.
      Em                             G
But I gotta tell you one thing: it's all the same to me.
           D         C         Cm      G
It's in my blood and you don't feel the flow.

[ska chords (upstrokes)]

   G                                    D
I sat there, ignoring the ever-present real world,
                               C
wondering why people have to change all the time
     Cm                            G
and about those who shift with the trends.
         Em
Well, we both know I know better
                                    G
than to point the blame at somebody else but myself,
                               D
so I'll put these words on the shelf
     C                      G
with pictures of old friends.


[Chorus]
[play like this:]
       Em        A    C  D7 G         C D G         C D G
E|----------------------------------------------------------------------|
B|------8-------------------12--------5-7-12--------5-7-----------------|
G|--7-8-9--8--7--6----9--11-12-11-9-7-5-7-12-11-9-7-5-7-4---------------|
D|--9-9-9--9--9--7--9-10-10-12-12-9-7-5-7-12-12-9-7-5-7-5---------------|
A|------7--6--5--7--9-10-12-10-9--7-5-3-5-10-9--7-5-3-5-5---------------|
E|---------------5--7-8--10-----------------------------3---------------|

[I skip the transitional chords below but don't forget to play them in every chorus!]

Em                                      A
I can sit and ask myself what I'm doing wrong
C       D7                  G
but I'm right this time and these are my convictions
                    C                  D
that you're tearing down. I won't sell out, even though
     G                                              C
it's all anyone in this world thinks we're good for now.
          D          G
She's not with us anymore.

[Verse]

G                         D
I sat there feeling frustrated. The autumn sky was rapidly
C                                                        G
turning to dusk and I'm feeling so fucking alone in this world.
            Em
You won't believe me when I tell you, but everything that I respect
   G                                         D     C          Cm      G
is absent in you. So go shut me out and shut up as this scene rages on.

[Chorus]
[same transitions as before, but start with Em right away,
 and notice the different ending]

Em                                         A
I can't decide what to do with people like you.
C       D7                           G
I can't take it on the chin 'cause these are my convictions
                    C                  D
that you're tearing down. I won't give up even though
     G                                              C
it's all anyone in this world thinks we're good for now.
         D          Em              D              Em
He's not with us anymore. I'm not changing for the world.

[Solo]
   Em          B           C   G       B
E|--------------------------------------------------------|
B|-----------------------------1210--101210--10-----------|
G|-12/1212119-----/12121112129-----12------12--12---------|
D|-----------129------------------------------------------|
A|--------------------------------------------------------|
E|--------------------------------------------------------|

Em        B              C           D                  G
There's a time to let it go, when it comes I'll let you know

[Solo 2 - approximately]

   G                      D
E|-----15---------------------14151715151415171514----------|
B|-1517--1715---15----------15------------------------------|
G|------------17--1716141214--------------------------------|
D|----------------------------------------------------------|
A|----------------------------------------------------------|
E|----------------------------------------------------------|

   C                       G
E|-151415141514171415141714191715151415151415171514---------|
B|----------------------------------------------------------|
G|----------------------------------------------------------|
D|----------------------------------------------------------|
A|----------------------------------------------------------|
E|----------------------------------------------------------|
   Em                  G
E|-------1415141514-----------------------------------------|
B|-171517----------1715-------------------------------------|
G|---------------------16b14121416b141214-------------------|
D|----------------------------------------------------------|
A|----------------------------------------------------------|
E|----------------------------------------------------------|

   D           C           G
E|---1415171514--15--15-------------------------------------|
B|-15----------17--17--1715--------------1517---------------|
G|-------------------------16141214121416-------------------|
D|----------------------------------------------------------|
A|----------------------------------------------------------|
E|----------------------------------------------------------|

[Chorus]
Em                                            A
I take this mental anguish, fist thrown at my head.
C           D
Because I'm right this time.
C         D
Yeah, I'm right this time.
C      D                G
I'm so right this time. These are my convictions
                    C                  D
that you're tearing down. I won't give up even though
     G                                              C
it's all anyone in this world thinks we're good for now.
         D           Em             D               G
She's not with us anymore. I'm not changing for the world.
                          B
I'm not changing for the world as we
C                                       G
go! go! go! go! go! fists first to the world.
     C
Your concrete morals mold life's prison cells and
     G                                                    F
with fashion as warden, you're prisoners in hell in your world.
                     G
Rot in hell in your world.

I'm not changing for your world.
Добавлено: 14.03.2012
Другие материалы по этой песне:
  • Аккорды и текст

Страница создана 14.03.2012
http://primanota.ru/arrogant-sons-of-bitches/yeah-i-dont-know-what-its-like-to-be-around-a-bunch-of-hipsters-chords.htm
Привет, Гость.
Предлагаем пройти революционный курс по гитаре.
Подарок от PrimaNota.Ru, забирай!