PrimaNota.ru - самый крупный в мире бесплатный архив песенных текстов, аккордов, табулатур и нот


Arrogant Sons Of Bitches - Rocket Rocket Rocketship - текст песни, таба, видео

Регистрация Запомнить меня
Войти через:  Facebook Google Twitter Vk Yandex Mail.ru

Arrogant Sons Of Bitches - Rocket Rocket Rocketship - текст песни, таба, видео

Печатать
Просмотров: 138
Rocketrocketrocket ship by ASOB
tabbed by me (chrishoward1993@hotmail.com)

if you want any BTMI/ASOB songs tabbed out, have any corrections, or whatever just
email me because i dont check on here too much.

\ = slide towards the nut
/ = slide towards the body
x = mute string
X = octave mute
. = palm mute
you know the rest




Intro (ska strumming) theres also wah added:


  E        A        C#m      Am
--7-7-7-7--5-5-5-5--4-4-4-4--5-5-5-5--|
--9-9-9-9--5-5-5-5--5-5-5-5--5-5-5-5--|
--9-9-9-9--6-6-6-6--6-6-6-6--5-5-5-5--| x4
--9-9-9-9--7-7-7-7--6-6-6-6--7-7-7-7--|
--7-7-7-7--7-7-7-7--4-4-4-4--7-7-7-7--|
-----------5-5-5-5-----------5-5-5-5--|


  C#         A        G#       F#    B#  C  C#        A        G#           A       B
-------------------------------------------------------------------------------------------|
-------------------------------------------------------------------------------------------|
--6666666\p--------------------------444/5--66666666---------------------------------------|
--6666666\p--7777777--6666666--4444--444/5--66666666--5555555--66666666666--555555--99999--|
--4444444\p--7777777--6666666--4444--222/3--44444444--5555555--66666666666--555555--99999--|
-------------5555555--4444444--2222-------------------7777777--44444444444--777777--77777--|
  .....                                                        ...........  ......  .....


Chorus

  E     Eb
--0000--0000------------------------------|
--0000--0000------------------------------|
--9999--8888--(x7)--/7-13-777-9-99-8-8-9--| x2
--XXXX--XXXX--------/X-X--XXX-X-XX-X-X-X--|
--7777--6666--------/9-11-999-7-77-6-6-7--|
------------------------------------------|


A backing track or another guitar plays the intro chords (no wah) while this is played 
over it:


 G# A  B C#   A         E        A    Am
------------------------7-7-7-7--5-5-5-5--|
------------------------9-9-9-9--5-5-5-5--|
-------4-6--6-----------9-9-9-9--6-6-6-5--|
--6-5--4-6--6-5-555555--9-9-9-9--7-7-7-7--|
--6-5--2-4--4-5-555555--7-7-7-7--7-7-7-7--|
--4-7---------7-777777-----------5-5-5-5--|
                ......

-Verse- (without the /p)


-Chorus-


Interlude: (might not be 100%) with the intro chords in the background
------------------------------------------------------|
------------------------------------------------------|
------------------------------------------------------| x2
------------------------------------------------------|
--666-7-9-7-6-0-00-0-7-0--666-7-9-7-6-7------7-6-7-6--|
--------------------------------------99-9------------|
[whole thing is palm muted]


After that part is this:


-----------------12-----|
---------------12-------|
-----9----9---------x9--|   x4
--xxxX-xxxXxxxx-----xX--|
--xxx7-xxx7xxxx-----x7--|
------------------------|
  .... ........     ..

-Chorus-


Outro:

  E        C#       F#     B    A        E
-----------------------------------------7-77-7-77-7-77-7-77-7--|
-----------------------------------------9-99-9-99-9-99-9-99-9--|
--99999999-66666666--------4444-2--(x2)--9-99-9-99-9-99-9-99-9--|
--99999999-66666666-444444-4444-2--------9-99-9-99-9-99-9-99-9--|
--77777777-44444444-444444-2222-0--------7-77-7-77-7-77-7-77-7--|
--------------------222222--------------------------------------|
Добавлено: 25.11.2013
Вам также может быть интересно:
Другие материалы по этой песне:
  • Аккорды и текст

Страница создана 19.07.2012
http://primanota.ru/arrogant-sons-of-bitches/rocket-rocket-rocketship-chords.htm
Привет, Гость.
Предлагаем пройти революционный курс по гитаре.
Подарок от PrimaNota.Ru, забирай!