PrimaNota.ru - самый крупный в мире бесплатный архив песенных текстов, аккордов, табулатур и нот


Arrogant Sons Of Bitches - Go Ska - текст песни, таба, видео

Регистрация Запомнить меня
Войти через:  Facebook Google Twitter Vk Yandex Mail.ru

Arrogant Sons Of Bitches - Go Ska - текст песни, таба, видео

Печатать
Просмотров: 171
Уроки эстрадного вокала в Санкт-Петербурге
----------------------------------------------------------------------------
                         Go Ska!-The Arrogant Sons of Bitches
----------------------------------------------------------------------------
Tabbed by:Nathaniel Cherban


Tuning:Standard

                               Intro
     F#5
e|------------------------------|------------------------------------------|
B|------------------------------|------------------------------------------|
G|---3-3--888888-6-444444-8-6---|-3-3--888888-6-1111111-10-----------------|
D|---4-4--xxxxxx-x-xxxxxx-x-x---|-4-4--xxxxxx-x-xxxxxxx-x------------------|
A|---4-4--666666-4-222222-6-4---|-4-4--666666-4-9999999-8------------------|
E|---2-2--------------------------2-2--------------------------------------|

                               Pre-Verse       
   F#5  D#5   B5   A#5   F#5 D#5   B5   C#5
e|--------------------|---------------------------------------------|
B|--------------------|---------------------------------------------|
G|-333--888-888888-7--|-333--888-888888-10--------------------------| X2
D|-444--888-999999-8--|-444--888-999999-11--------------------------|
A|-444--666-999999-8--|-444--666-999999-11--------------------------|
E|-222------777777-6--|-222------777777-9---------------------------|

e|--2-x-2-x-2-x-2-x-2-x-2-x-2-22222----------------------------------------|
B|--2-x-2-x-2-x-2-x-2-x-2-x-2-22222----------------------------------------|
G|--3-x-3-x-3-x-3-x-3-x-3-x-3-33333----------------------------------------|
D|--4-x-4-x-4-x-4-x-4-x-4-x-4-44444----------------------------------------|
A|--4-x-4-x-4-x-4-x-4-x-4-x-4-44444----------------------------------------|
E|-------------------------------------------------------------------------|

                               Verse

e|-222-x-2-x-2-x-2-x-77-x-7-x-7-x-9--9--x-9--x-9--x----------|
B|-222-x-2-x-2-x-2-x-77-x-7-x-7-x-9--9--x-9--x-9--x----------|
G|-333-x-3-x-3-x-3-x-88-x-8-x-8-x-10-10-x-10-x-10-x----------| X8
D|-444-x-4-x-4-x-4-x-99-x-9-x-9-x-11-11-x-11-x-11-x----------|
A|-444-x-4-x-4-x-4-x-99-x-9-x-9-x-11-11-x-11-x-11-x----------|
E|-----------------------------------------------------------|

                               Chorus

   F#5  D#5   B5   A#5   
e|--------------------|----2-x-2-x-2-x-2---------|
B|--------------------|----2-x-2-x-2-x-2---------|
G|-333--888-888888-7--|----3-x-3-x-3-x-3---------| 
D|-444--888-999999-8--|----4-x-4-x-4-x-4---------|
A|-444--666-999999-8--|----4-x-4-x-4-x-4---------|
E|-222------777777-6--|--------------------------|

   F#5 D#5   B5   C#5                                    
e|--------------------|----2-x-2-x-2-x-2---------|
B|--------------------|----2-x-2-x-2-x-2---------|
G|-333--888-888888-10-|----3-x-3-x-3-x-3---------| 
D|-444--888-999999-11-|----4-x-4-x-4-x-4---------|
A|-444--666-999999-11-|----4-x-4-x-4-x-4---------|
E|-222------777777-9--|--------------------------|


                               Pre-Verse
                               Interlude
                                 Verse
                                Chorus
                               Pre-Verse x6
                               




| /  slide up
| \  slide down
| h  hammer-on
| p  pull-off
| ~  vibrato
| +  harmonic
| x  Mute note
============================================================================
Добавлено: 16.06.2012
Другие материалы по этой песне:
  • Аккорды и текст

Страница создана 28.03.2012
http://primanota.ru/arrogant-sons-of-bitches/go-ska-chords.htm
Привет, Гость.
Предлагаем пройти революционный курс по гитаре.
Подарок от PrimaNota.Ru, забирай!