PrimaNota.ru - самый крупный в мире бесплатный архив песенных текстов, аккордов, табулатур и нот


Arrogant Sons Of Bitches - 1800-alarm-me - текст песни, бас-таба, видео

Регистрация Запомнить меня
Войти через:  Facebook Google Twitter Vk Yandex Mail.ru

Arrogant Sons Of Bitches - 1800-alarm-me - текст песни, бас-таба, видео

Печатать
Просмотров: 134
Уроки эстрадного вокала в Санкт-Петербурге
Intro:
g|-------------------------------------------------------------|
d|-------------------------------------------------------------|
a|-------------------------------------------------------------|
e|-0-00-00-0-00-00-0-00-00-55-44-2-22-22-2-22-22-2-22-22-55-44-|

g|-----------------------------------------------|
d|-----------------------------------------2-----|
a|-4-44-44-4-44-44-4-44-44---------------3---3---|
e|-------------------------55-44-5-55-55-------4-|

Verse:
g|----------------------------------------------------------------|
d|-2---2---2---2---4---4---4---4-----6---6--6764------------------|
a|---2---2---2---2---4---4---4---4-47-747-47----76-5---5---3-----2|
e|---------------------------------------------------5---5---0-3--|

g|---------------------------------------------------------|
d|-2---2---2---2---4---4---4---4---------------------------|
a|---2---2---2---2---4---4---4---4-44444-22222-00000-22222-|
e|---------------------------------------------------------|

Chorus type post-verse thing

g|------------------------------------|
d|-------------------22--22-2---------|
a|-00--00-0-22--22-2---22--2----------|
e|---00--0----22--2-----------4444-2-4|

g|--------------------------------------------------------|
d|-------------------22--22-2-----------------------------|
a|-00--00-0-22--22-2---22--2--00--00-0-22--22-2-55-5-22-2-|
e|---00--0----22--2-------------00--0----22--2----5----2--|

g|------------------------------------------------------|
d|-22--22-2-44--4674-66-44-------77-7-99-9-11~----9~----|
a|---22--2----44-----------77-66---7----9---------------|
e|------------------------------------------------------|

Breakdown
g|-----------------4-6-4------2~--------4-6-4------2~---|
d|-10-9-7-6-4-2~---------4~--------2~---------4~--------|
a|------------------------------------------------------|
e|------------------------------------------------------|

g|-----1--1h2p1----------9--------------------------|
d|---2---2------4~------9-9-7-6-4-2-----------------|
a|-4--------------------------------333322220000----|
e|----------------------------------------------2222|

End:
g|------------------------------------------------------|
d|----------------------------------------1~---11111111-|
a|---------------------------4~---4444444-2~---22222222-|
e|-4~---4444444-5~---5555555----------------------------|

g|----------------------------------------------------------------|
d|----------------------------------------------------------------|
a|----------------------------------------6~---6666---------------|
e|-4~---4444444-5~---5555555-6~---6666666-7~---7777-5--4--2--0~---|
Добавлено: 10.07.2012
Другие материалы по этой песне:
  • Аккорды и текст

Страница создана 15.04.2012
http://primanota.ru/arrogant-sons-of-bitches/1800-alarm-me-chords.htm
Привет, Гость.
Предлагаем пройти революционный курс по гитаре.
Подарок от PrimaNota.Ru, забирай!