PrimaNota.ru - самый крупный в мире бесплатный архив песенных текстов, аккордов, табулатур и нот


Aronchupa - Im An Albatraoz - таба, видео

Регистрация Запомнить меня
Войти через:  Facebook Google Twitter Vk Yandex Mail.ru

Aronchupa - Im An Albatraoz - таба, видео

Печатать
Просмотров: 475
-------------------------------------------------------------------------------
                             I'm an Albatraoz - AronChupa
-------------------------------------------------------------------------------
Tabbed by: SmoothPlayin
E-mail:robin1@vr-web.de
Tuning:Standart

*******************************************************************************

THIS SONG WAS NOT WROTE FOR GUITAR! (its a techno song)

*******************************************************************************

Play Style: You can just adapt your play style(it's up to you)

Recommended Play Style: staccato(all parts), accuracy on the sixteenth notes, you
                        don't have to play all bass written here, don't use a pick,
                        but your fingers , barre chord at 3rd bar is neccesary

*******************************************************************************

Structure:              Part 1 (for exact length you should listen to the song)
                        Part 2
                        Part 1 (2 times)
                        Part 3 (6 times)
                        Part 2 
                        Part 4
                        Part 3 (6 times)
                        Part 2
                        Part 5
                        Part 6
                        Part 3 (10 times, 4th isn't played)
                        Part 7
                        Part 2
                        Part 8
                        Part 6
                        Part 1 (for exact length you should listen to the song)

*************************************

  ( one "-"  is one sixteenth note)

*************************************

Part 1 : Beginning & Bass Beat(acutally better played with bass):

pizzicato (right hand laid down on strings, kinda mute them)


e|----|--------------------------------|
B|----|--------------------------------| listen to the song to get the right
G|----|--------------------------------| number of repitions,
D|----|--------------------------------| use your right thumb
A|--3-|--33--33--33--33--33--33--33--33| for a better sound(not a pick)
E|----|--------------------------------|

*******************************************************************************

Part 2: I'm an Albatraoz


e|-3------------|
B|----64--3-----|
G|---------5----| (the 3 bass notes can also be removed)
D|--------------| 
A|-3---3---3----|
E|--------------|

*******************************************************************************

Part 3: Cm chord

e|------------------|
B|---4---4---4---4--|
G|---5---5---5---5--|   
D|---5---5---5---5--|
A|-3-------3--------|
E|-----3-------3----|

*******************************************************************************

Part 4: Beat version 1 (in all Beat parts the accuracy of the rhythm is quite important)

e|-----3---3---3---3---3--43-------|
B|------------6-------6-------4----|
G|-----------------------------5---|
D|---------------------------------|
A|-3---3---3--33---3--33--33--33---|
E|---------------------------------|


e|-----3---3---3---3---------------|
B|------------6-------64--3--------|
G|-------------------------5-------|
D|---------------------------------|
A|-3---3---3--33-------------------|
E|---------------------------------|

                    triole(634)

e|-----3---3---3---3----343-------|
B|------------6-------66-----4----|
G|----------------------------5---|
D|--------------------------------|
A|-3---3---3--33---3--33333--33---|
E|--------------------------------|


e|-----3---3---3---3---------------|
B|------------6-------64--3--------|
G|-------------------------5-------|
D|---------------------------------|
A|-3---3---3--33-------------------|
E|---------------------------------|

*******************************************************************************

Part 5: Beat version 2

e|-----3---3---3---3---3--43-------|
B|------------6---------------4----|
G|-----------------------------5---|
D|---------------------------------|
A|-3---3---3--33---3---3--33--33---|
E|---------------------------------|


e|-----3--43-------3---------------|
B|------------4-------64--3--------|
G|-------------5-----------5-------|
D|---------------------------------|
A|-3---3--33--33-------------------|
E|---------------------------------|

                    
e|-----3---3---3---3--33343-------|
B|------------6--------------4----|
G|----------------------------5---|
D|--------------------------------|
A|-3---3---3--33---3--33333--33---|
E|--------------------------------|


e|-3---33343-------3---------------|
B|------------4------6-4-3---------|
G|-------------5-------------------|
D|---------------------------------|
A|-3---3---3--33-------------------|
E|---------------------------------|

*******************************************************************************

Part 6: Beat Version 3:


e|----------3------3---3--43-------|
B|------34-6------------------4----|
G|-5--5------------------------5---|
D|---------------------------------|
A|-3--3-33-33------3---3--33--33---|
E|---------------------------------|


e|-----3--43-------3---------------|
B|------------4-------64--3--------|
G|-------------5-----------5-------|
D|---------------------------------|
A|-3---3--33--33---3---------------|
E|---------------------------------|

                    
e|----------3------3--33343-------|
B|------34-6-----------------4----|
G|-5--5-----------------------5---|
D|--------------------------------|
A|-3--3-33-33------3--33333--33---|
E|--------------------------------|



e|-3---33343-------3---------------|
B|------------4-------64-3---------|
G|-------------5----------5--------|
D|---------------------------------|
A|-3---3---3--33-------------------|
E|---------------------------------|

*******************************************************************************

Part 7: Bridge : contains very much high g(just listen to the song)

*******************************************************************************

Part 8: Beat Version 4:


e|-----3---3---3---3---3--43-------|
B|------------6-------6-------4----|
G|-----------------------------5---|
D|---------------------------------|
A|-3---3---3--33---3--33--33--33---|
E|---------------------------------|


e|-----3---3---3---3---------------|
B|------------6-------64--3--------|
G|-------------------------5-------|
D|---------------------------------|
A|-3---3---3--33-------------------|
E|---------------------------------|

e|-----3---3---3---3--33343-------|
B|------------6--------------4----|
G|----------------------------5---|
D|--------------------------------|
A|-3---3---3--33---3--33333--33---|
E|--------------------------------|


e|-3---3---3---3------|
B|--------------------|
G|--------------------|
D|--------------------|
A|-3---3---3---3------|
E|--------------------|

*******************************************************************************

And feel free to leave a comment/correction, or just view my other tabs.

And also don't play that on tab Player, because while editing, the tab player didn't get the 16th notes right.

Добавлено: 25.07.2015
Другие материалы по этой песне:
  • Аккорды и текст

Страница создана 25.07.2015
http://primanota.ru/aronchupa/im-an-albatraoz-chords.htm
Привет, Гость.
Предлагаем пройти революционный курс по гитаре.
Подарок от PrimaNota.Ru, забирай!