PrimaNota.ru - самый крупный в мире бесплатный архив песенных текстов, аккордов, табулатур и нот


Arnocorps - True Lies - таба, видео

Регистрация Запомнить меня
Войти через:  Facebook Google Twitter Vk Yandex Mail.ru

Arnocorps - True Lies - таба, видео

Печатать
Просмотров: 133
Уроки эстрадного вокала в Санкт-Петербурге
Band: Arnocorps
Song: True Lies
Album: The Greatest Band of All Time

Tabbed by skyturnedred@gmail.com

Special thanks to Inzo Der Barrakuda for corrections!


EADGBe
 
Bass intro

|-----------------------------------------------------|
|-----------------------------------------------------|
|-----------------------------------------------------|
|-5-55555555-88-5-55555555-88-5-55555555-88-1111-3333-|


Riff 1

Guitar 1
|-----------------------------------| 
|-----------------------------------| 
|-----------------------------------| 
|-----------------------------------| x3 
|-0-0-7-0-0-5-0-0-3-0-0-5-0-0-8-7---| 
|-----------------------------------| 

|-------------------------------| 
|-------------------------------| 
|-------------------------------| 
|-------------------------------| 
|-0-0-7-0-0-5-0-0-333333333-----| 
|-------------------------------| 


Guitar 2 
|-------------------------------------| 
|-------------------------------------| 
|-14--12---14--12---14--12---10--12---| 
|-------------------------------------| 
|-12--10---12--10---12--10---8---10---| 
|-------------------------------------| 


Riff 2 (verse)
 
|-----------------------------------------------------| 
|-----------------------------------------------------| 
|-2-22222222-55-2-22222222-55-2-22222222-55-----------| 
|-2-22222222-55-2-22222222-55-2-22222222-55-3333-5555-| 
|-0-00000000-33-0-00000000-33-0-00000000-33-3333-5555-| 
|-------------------------------------------1111-3333-| 


Riff 3 (chorus)

|-------------------------------------------------------| 
|-------------------------------------------------------| 
|-2-2222-5-4-5-----------5-4--2-2222-5-4-5--------------| 
|-2-2222-5-4-5--3-3333-5-5-4--2-2222-5-4-5--3333-5555---| 
|-0-0000-3-2-3--3-3333-5-3-2--0-0000-3-2-3--3333-5555---| 
|---------------1-1111-3--------------------1111-3333---| 

Riff 1
Riff 2
Riff 3


Riff 4

Guitar 1
|----------------------------------| 
|----------------------------------| 
|----------------------------------| 
|---2---2---2---2---3---3---5---5--| 
|---2---2---2---2---3---3---5---5--| 
|-000-000-000-000-111-111-333-333--| 
  ..  ..  ..  ..  ..  ..  ..  ..

Guitar 2
|----------------------------------| 
|----------------------------------| 
|-4---------------5-------7--------| x2
|----------------------------------| 
|-2---------------3-------5--------| 
|----------------------------------| 



Riff 1 with this harmony:

|-----------------------| 
|-----------------------|
|-9---------10--12------| x2
|-----------------------|
|-7---------8---10------| 
|-----------------------|

|---------------------------------| 
|---------------------------------|
|-14-14-14-14-14-14-14-14--12-12--| x3 
|---------------------------------|
|-12-12-12-12-12-12-12-12--10-10--| 
|---------------------------------|

|--------------------------------------| 
|--------------------------------------|
|-10-10-10-10-10-10--12-12-12-12-12-12-| 
|--------------------------------------|
|--8--8--8--8--8--8--10-10-10-10-10-10-| 
|--------------------------------------|


Riff 5 (Whoa oh oh)

|--------|--------|--------|-----------| 
|--------|--------|--------|-----------|
|-2------|--------|-2------|-----------| 
|-2------|-3------|-2------|-3---------|
|-0------|-3------|-0------|-3333-5555-| 
|--------|-1------|--------|-1111-3333-|

Riff 3 (chorus)
Добавлено: 01.07.2012
Другие материалы по этой песне:
  • Аккорды и текст

Страница создана 01.07.2012
http://primanota.ru/arnocorps/true-lies-chords.htm
Привет, Гость.
Предлагаем пройти революционный курс по гитаре.
Подарок от PrimaNota.Ru, забирай!