PrimaNota.ru - самый крупный в мире бесплатный архив песенных текстов, аккордов, табулатур и нот


Arnocorps - Predator - таба, видео

Регистрация Запомнить меня
Войти через:  Facebook Google Twitter Vk Yandex Mail.ru

Arnocorps - Predator - таба, видео

Печатать
Просмотров: 154
Уроки эстрадного вокала в Санкт-Петербурге
Band: Arnocorps
Song: Predator
Album: The Greatest Band of All Time

Tabbed by skyturnedred@gmail.com

Special thanks to Inzo Der Barrakuda for corrections!

EADGBe 

. = palm mute
/ = slide up


Riff 1

|---------------------------------------------------|
|---------------------------------------------------|
|---------------------------------------------------|
|-3-4-22----------3-4-22-----3-4-22---------3-4-22--|
|-3-4-22----------3-4-22-----3-4-22---------3-4-22--|
|-1-2-00--000000--1-2-00-----1-2-00-000000--1-2-00--|
          ......                    ......

"There's something out
 there waiting for us,
 and it aint' no man!"

Riff 2

                   x3 
|---------------------|------------------------|
|---------------------|------------------------|
|---------------------|------------------------|
|-333-4\3--333-4\3----|-333-4\3--333-4\3--2----|
|-333-4\3--333-4\3----|-333-4\3--333-4\3--2----|
|-111-2\1--111-2\1----|-111-2\1--111-2\1--0----|
  ....      ....        ....     ....



Riff 3 (verse)

|-------------------------------|
|-------------------------------|
|-4-----4-----7-----------------|
|-4-----4-----7--5-----5-----7--|
|-2-222-2-222-5--5-----5-----7--|
|----------------3-333-3-333-5--|
    ...   ...      ...   ...



Riff 4 (chorus)

Guitar 1
|--------------------------------------------|
|--------------------------------------------|
|-44444444-55555555-9-----9-999--9-----9-999-| x2
|-44444444-55555555-9-----9-999--9-----9-999-|
|-22222222-33333333-7-777-7-777--7-777-7-777-|
|--------------------------------------------|
                      ...          ...

Guitar 2 on second time
|-----------------------------------------------|
|-----------------------------------------------|
|-44444444-55555555-9-----12-11-9----9----7-99--|
|-44444444-55555555-9---------------------------| 
|-22222222-33333333-7-777-10--9-7----7----5-77--|
|-----------------------------------------------|
                      ...


Riff 3
RIff 4
Riff 3
Riff 4


Riff 5 (solo)

Part 1
|---------------------------------------------------|
|---------------------------------------------------|
|---------------------------------------------------|
|-9-9-99---7-7-77---9-9-99--14-14-14--12-11-12-11---|
|---------------------------------------------------|
|---------------------------------------------------|


Part 2
|------------------------------------------------------------------------|
|------------------------------------------------------------------------|
|------------------------------------------------------------------------|
|-9-9--11-12-11---7-7--11-12-11---9-9--11-12-11--14-14-14--12-11-12-11---|
|------------------------------------------------------------------------|
|------------------------------------------------------------------------|

Part 3
|----------------------------------------------------|
|----------------------------------------------------|
|----------------------------------------------------|
|-9--------11-12-11---9--11--12---/14-12-11-9--------|
|----------------------------------------------------|
|----------------------------------------------------|


Riff 5 (Rhythm)

|------------------------------------|
|------------------------------------|
|---------------------------9-7------|
|-9-999--7-777--9-999--5-5--9-7------| x2 - open strummed
|-9-999--7-777--9-999--5-5--7-5------|
|-7-777--5-555--7-777--3-3-----------|
                             


|---------------------------------------------------|
|---------------------------------------------------|
|--------------------------------------------9-7----|       
|-99-99-99-99--77-77-77-77--99-99-99-99--55--9-7----| x4 - palm muted   
|-99-99-99-99--77-77-77-77--99-99-99-99--55--7-5----|          
|-77-77-77-77--55-55-55-55--77-77-77-77--33---------|          

Riff 4 (chorus) x 4

E!
Добавлено: 02.05.2012
Вам также может быть интересно:
Другие материалы по этой песне:
  • Аккорды и текст

Страница создана 02.05.2012
http://primanota.ru/arnocorps/predator-chords.htm
Привет, Гость.
Предлагаем пройти революционный курс по гитаре.
Подарок от PrimaNota.Ru, забирай!