PrimaNota.ru - самый крупный в мире бесплатный архив песенных текстов, аккордов, табулатур и нот


Arnocorps - Arno - таба, видео

Регистрация Запомнить меня
Войти через:  Facebook Google Twitter Vk Yandex Mail.ru

Arnocorps - Arno - таба, видео

Печатать
Просмотров: 142
Arnocorps - Arno Intro

skyturnedred@gmail.com 

EADGBe

Riff 1

Guitar 1 plays this 4 times
|------------|------------|------------|-----------|
|------------|------------|------------|-----------|
|-------0----|-------0----|-------0----|-----------|
|----2----2--|----2----2--|----2----2--|---2----2--|
|------------|-3----------|-2----------|-1----0----|
|-0----------|------------|------------|-----------|


Guitar 2

 1st   2nd    3rd & 4th repeat of Guitar 1 riff
|-----|-----|-----|-------|
|-----|-----|-----|-------|
|-----|-----|-----|-------|
|-----|-2---|--9--|-------|
|-----|-2---|-----|-------|
|-----|-0---|-----|---15\-| <- pickslide


Riff 2 x2 

|--------------------------------------|
|--------------------------------------|
|--------5-55--------------------------|
|-2-22-5-5-55-5-7-77--5-7-888-7-8 7-5--|
|-2-22-5-3-33-5-7-77--5-7-888-7-8 7-5--| 
|-0-00-3------3-5-55--3-5-666-5-6-5-3--|


Riff 3 x2 

|---------------------------------|
|---------------------------------|
|------------5-------2------3---2-|
|----2----5555-55-2222-22-333-222-|
|-2222-22-3333 33-0000-00-111-000-|
|-0000-00-------------------------|
  ...  .. ...  .. ...  .. ..  ..


Riff 2 x2 
Riff 3 x4 

Guitar 1 refrains with Riff 1 while...
Guitar 2 plays octave chords
|------------------------------------------------|
|------------------------------------------------|
|--9--12--14--17-16---9--12--14--7--8------------| x2 - second time end on E
|------------------------------------------------|
|--7--10--12--15-14---7--10--12--5--6------------|
|------------------------------------------------|

Ending bass line- low bass
|--------------------------------------------|
|--------------------------------------------|
|-----------------------------------55-66----| x2- second time end on E
|-0000-8888-7777-66-55---0000-8888-----------|
Добавлено: 12.07.2012
Другие материалы по этой песне:
  • Аккорды и текст

Страница создана 12.07.2012
http://primanota.ru/arnocorps/arno-chords.htm
Привет, Гость.
Предлагаем пройти революционный курс по гитаре.
Подарок от PrimaNota.Ru, забирай!