PrimaNota.ru - самый крупный в мире бесплатный архив песенных текстов, аккордов, табулатур и нот


Army Of The Pharaohs - Murda Murda - текст песни, бас-таба, видео

Регистрация Запомнить меня
Войти через:  Facebook Google Twitter Vk Yandex Mail.ru

Army Of The Pharaohs - Murda Murda - текст песни, бас-таба, видео

Печатать
Просмотров: 88
Tabbed by: 6METAL6BASSIST6
E-mail: petergriffinav@gmail.com

Tuning: EADG

G|----------------------------------------------------------------|
D|----------------------------------------------------------------|
A|----------------------------------------------------------------|
E|7---------------------------5---7-------------------------------|

G|----------------------------------------------------------------|
D|--------------------------------5-------------------------------|
A|--------------------------------------------------------5-------|
E|7-------------------------------------------7-------------------|

G|----------------------------------------------------------------|
D|5---------------------------4---5-------------------7-----------|
A|----------------------------------------------------------------|
E|----------------------------------------------------------------|

G|----------------------------------------------------------------|
D|5-------------------4-----------5-------------------------------|
A|------------------------------------------------5---4-----------|
E|--------------------------------------------------------5-------|

Repeated until 2:28

2:28

G|----------------------------------------------------------------|
D|----------------------------------------------------------------|
A|----------------------------------------------------------------|
E|0-------------------------------0-------------------------------|

G|----------------------------------------------------------------|
D|----------------------------------------------------------------|
A|--------------------------------3-----------2-----------5-------|
E|0---------------------------------------------------------------|

G|----------------------------------------------------------------|
D|----------------------------------------------------------------|
A|3---------------------------2---3-------------------5-----------|
E|----------------------------------------------------------------|

G|----------------------------------------------------------------|
D|------------------------------------------------5---4-----------|
A|3-------------------2-----------3-----------------------5-------|
E|----------------------------------------------------------------|

2:41

Repeated until the end.

G|----------------------------------------------------------------|
D|----------------------------------------------------------------|
A|----------------------------------------------------------------|
E|7---------------------------5---7-------------------------------|

G|----------------------------------------------------------------|
D|--------------------------------5-------------------------------|
A|--------------------------------------------------------5-------|
E|7-------------------------------------------7-------------------|

G|----------------------------------------------------------------|
D|5---------------------------4---5-------------------7-----------|
A|----------------------------------------------------------------|
E|----------------------------------------------------------------|

G|----------------------------------------------------------------|
D|5-------------------4-----------5-------------------------------|
A|------------------------------------------------5---4-----------|
E|--------------------------------------------------------5-------|
Добавлено: 14.08.2015
Другие материалы по этой песне:
  • Аккорды и текст

Страница создана 21.02.2014
http://primanota.ru/army-of-the-pharaohs/murda-murda-chords.htm
Привет, Гость.
Предлагаем пройти революционный курс по гитаре.
Подарок от PrimaNota.Ru, забирай!