PrimaNota.ru - самый крупный в мире бесплатный архив песенных текстов, аккордов, табулатур и нот


Army Of Anyone - Used To Know Her - таба, видео

Регистрация Запомнить меня
Войти через:  Facebook Google Twitter Vk Yandex Mail.ru

Army Of Anyone - Used To Know Her - таба, видео

Печатать
Просмотров: 138
Author/Artist: Army Of Anyone
Title: Use To Know Her
Transcribed by: Saverain
d strum down
u strum up
/ slide up
\ slide down
h hammer on
p pull off

Tuning : D G C G C D (Dean, AOA website)

-------|-8-7-5-----7-5-------5----------|-------------------------------------|
-------|-------5-------5-4-----4-0-2----|-------------------------------------|
-------|--------------------------------|-------------------------------------|
-------|-0---------0---------0----------|-------------------------------------|
-------|--------------------------------|-------------------------------------|
-------|--------------------------------|-------------------------------------|


-------|-5h7-5------------------------------0--------0------------------------|
-------|-0---0-5-4---4--4-4--4-4--2-2-4-2-0-2---2--2-2------------------------|
-------|-0-----0-0---0--0-0--0-0----0-0-0---0---0--0----------------------0---|
-------|-------0-0---0--0-0--0-0----------------0--0--------0-2-2/4-0-----0---|
-------|------------------------------------------------0h2-----------4/5-----|
-------|----------------------------------------------------------------------|


---------------------------------------------|-5-5h7--5-----|-----------------|
--------------------------------------0--0-0-|-0-0----0-5-4-|-----------------|
--0--0------0----------------0-0-0--0-0--0-0-|-0-0----0-0-0-|-----------------|
--0--------------------------0-0-0--0-0--0-0-|----------0-0-|-----------------|
--------2/3---2/3-0-2p0-2/5------------------|--------------|-----------------|
---------------------------------------------|--------------|-----------------|
                                              Begins w/ this next time

--|-------------------------------------------------------------------|-------|
--|-------------------------------------------------------------------|-------|
--|-4/5--5/7--9-----4/5--5--5-\-3-----2/3--3-3--5--5/7\5--5/7\5-------|-------|
--|---------------------------------7----------------------------7----|-------|
--|-------------------------------------------------------------------|-------|
--|-------------------------------------------------------------------|-------|
   G2 Pt.1

--|-------------------------------------------------------------------|-------|
--|-------------------------------------------------------------------|-------|
--|-4/5--5-7--9-----4/5--5--5-\-3-----2/3--3-3--5--7\5-5--5/7\5--3/5--|-------|
--|---------------------------------7---------------------------------|-------|
--|-------------------------------------------------------------------|-------|
--|-------------------------------------------------------------------|-------|
   G2 Pt.2

--|---------------------------------------------------------------------------|
--|-4-5--7--9---4-4--4--4-4-5--7--9---2-2--2--4-4-5--7--9--4-4--4--4-4-5--7---|
--|-0-0--0--0---0-0--0--0-0-0--0--0---0-0--0--0-0-0--0--0--0-0--0--0-0-0--0---|
--|-0-0--0--0---0-0--0--0-0-0--0--0---0-0--0--0-0-0--0--0--0-0--0--0-0-0--0---|
--|-------------x-x--x--------------------------------------------------------|
--|-------------5-5--5--------------------------------------------------------|
   P.M 00's

---------------------------------|--------------------------------------------|
--9-----------2---2-2--2-2-2-0---|--------------------------------------------|
--0--0-0-0-0--0---0-0--0-0-0-0---|--------------------------------------------|
--0--0-0-x-x--x---x-x--x-x-x-----|--------------------------------------------|
---------3-3--3---3-3--3-3-3-----|--------------------------------------------|
---------------------------------|--------------------------------------------|


-----|-------------------------|----------------------------------------------|
-----|-------------------------|----------------------------------------------|
-----|-7-7/9-5/7----5-5/7-3----|-\--------------------------------------------|
-----|-------------------------|----------------------------------------------|
-----|-------------------------|----------------------------------------------|
-----|-------------------------|----------------------------------------------|
  G2

-----|-----------------------------------------------------------------|------|
-----|--------------------------0-----------------0-------------0--0-0-|------|
-----|-----0----0----0-----10---10--10-10-10-5-5--5--5-5-5-5-5--5--5-5-|------|
-----|-0---4/5--5/7--7/9---10---10--10-10-10-5-5--5--5-5-5-7-7--7--7-7-|------|
-----|-4/5-----------------8----8---8--8--8--3-3--3--3-3-3-5-5--5--5-5-|------|
-----|-----------------------------------------------------------------|------|


-----|----------------------------------------------|-------------------------|
-----|-------------------------0--------------0-----|-------------------------|
-----|-----0----0----0-----10--10--10-10-5-5--5-----|-------------------------|
-----|-0---4/5--5/7--7/9---10--10--10-10-5-5--5-----|-------------------------|
-----|-4/5-----------------8---8---8--8--3-3--3-----|-------------------------|
-----|----------------------------------------------|-------------------------|
      Ending

-----|--------------------------|--------|-----|--------|---------------------|
-----|--------------------------|--------|-----|--------|---------------------|
-----|-10-10-10\9-9-9-9\7-7-7\5-|--5\-0--|--5--|-5\-2/5-|---------------------|
-----|--------------------------|--------|-----|--------|---------------------|
-----|--------------------------|--------|-----|--------|---------------------|
-----|--------------------------|--------|-----|--------|---------------------|
   G2                             Differnt endings each time
Добавлено: 14.07.2012
Вам также может быть интересно:
Другие материалы по этой песне:
  • Аккорды и текст

Страница создана 14.07.2012
http://primanota.ru/army-of-anyone/used-to-know-her-chords.htm
Привет, Гость.
Предлагаем пройти революционный курс по гитаре.
Подарок от PrimaNota.Ru, забирай!