PrimaNota.ru - самый крупный в мире бесплатный архив песенных текстов, аккордов, табулатур и нот


Army Of Anyone - Leave It - текст песни, таба, видео

Регистрация Запомнить меня
Войти через:  Facebook Google Twitter Vk Yandex Mail.ru

Army Of Anyone - Leave It - текст песни, таба, видео

Печатать
Просмотров: 174
Уроки эстрадного вокала в Санкт-Петербурге
Авторы музыки: Dean DeLeo
Авторы текста: Richard Patrick
Author/Artist: Army Of Anyone
Title: Leave It
Transcribed by: Saverain
h hammer on
p pull off
b bend
r release bend
/ slide up
\ slide down
d strum down
u strum up

Standard Tuning

-------|------------------------------|--|------------------------------------|
-------|-------------------------3----|--|------------------------------------|
-------|-0-2p0---0-5p4------2-------2-|--|------------------------------------|
-------|-------4-------3/4----4-------|--|------------------------------------|
-------|------------------------------|--|------------------------------------|
-------|------------------------------|--|------------------------------------|
   Intro

-------|---------------------------------------------|------------------------|
-------|-----------------------5/8-5--5-----------5--|------------------------|
-------|-4--6--7--4---6--6-6-6--------6-----------6--|------------------------|
-------|-5--7--7--5---7--7-7-7--------7--7---7----7--|------------------------|
-------|-5--7--7--5---7--7-7-7-------------7---7-----|------------------------|
-------|---------------------------------------------|------------------------|
   Riff 1 (Arranged for 1 guitar)

-------|--------------------------------------------|-------------------------|
-------|-----------------------5/8\5--5----------\--|-------------------------|
-------|-4--6--7--4---6--6-6-6-6/9\6--6----------\--|-------------------------|
-------|-5--7--7--5---7--7-7-7--------7--7---7------|-------------------------|
-------|-5--7--7--5---7--7-7-7-------------7---7----|-------------------------|
-------|--------------------------------------------|-------------------------|
   Riff 2

-------|---------------|--|----------------|----------------------------------|
-------|---------------|--|-----------5----|----------------------------------|
-------|-7--7--x-x-6---|--|-7--7--x-x-6----|----------------------------------|
-------|-7--7--x-x-7---|--|-7--7--x-x-7----|----------------------------------|
-------|-7--7--x-x-7---|--|-7--7--x-x-7----|----------------------------------|
-------|---------------|--|----------------|----------------------------------|
   Verse d  d  d u d

--------|---------------------------------------------------------------------|
--------|-----------------------5/8-5--5-----------5--------------------------|
--------|-4--6--7--4---6--6-6-6--------6-----------6---4--6--7--4---6--6-6-6--|
--------|-5--7--7--5---7--7-7-7--------7--7---7----7---5--7--7--5---7--7-7-7--|
--------|-5--7--7--5---7--7-7-7-------------7---7------5--7--7--5---7--7-7-7--|
--------|---------------------------------------------------------------------|
   Chorus d  d  d  d   d  u d u d   d  d  u d u d  d

-------------------------|--------|-------|-------|------|---------|-------|--|
-5/8\5---5-----------5---|--------|-------|-------|------|---------|-------|--|
-6/9\6---6-----------6---|--------|-------|-------|------|-0-2p0---|-------|--|
---------7--7---7----7---|--------|-------|-------|------|-------4-|-------|--|
--------------7---7------|--------|-------|-------|------|---------|-------|--|
-------------------------|--------|-------|-------|------|---------|-------|--|
                           Riff 1   Riff 2  Intro Ver w/intro end    Chorus

--------|---------------------------------------------------|-----------------|
--------|---5------5------3------3------5------3------3-----|-----------------|
--------|---6------4------4------2------4------4------2-----|-----------------|
--------|---7------6------5------4------6------5------4-----|-----------------|
--------|---7------x------5-------------x------5------------|-----------------|
--------|----------5--------------------5-------------------|-----------------|
     G1 Strum Chords(d ddu ud dudu)     "It's Ok to come down"

--------|---------------------------------------------------|-----------------|
--------|----------5------3------3------5------3------3-----|-----------------|
--------|----------4------4------2------4------4------2-----|-----------------|
--------|----------6------5------4------6------5------4-----|-----------------|
--------|---------------------------------------------------|-----------------|
--------|---------------------------------------------------|-----------------|
     G2

-------|------------------------|--|------------------------------------------|
-------|-3-----3------3-----3---|--|------------------------------------------|
-------|---2---2--2-----2---2---|--|------------------------------------------|
-------|-----4------------4-----|2x|------------------------------------------|
-------|------------------------|--|------------------------------------------|
-------|------------------------|--|------------------------------------------|
      G1

-------|---------------|--|---------------------------------------------------|
-------|-3-----3----3--|--|---------------------------------------------------|
-------|---2---2--2----|--|---------------------------------------------------|
-------|-----4---------|--|---------------------------------------------------|
-------|---------------|--|---------------------------------------------------|
-------|---------------|--|---------------------------------------------------|
  Interlude G1 (G2 plays intro)

-------|-----------------|----------------------------------------------------|
-------|-----------------|----------------------------------------------------|
-------|-----------------|----------------------------------------------------|
-------|-14/17--16--11---|----------------------------------------------------|
-------|-----------------|----------------------------------------------------|
-------|-----------------|----------------------------------------------------|
      G3

-------|----------------------------------------------------------------------|
-------|----------------------------------------------------------------------|
-------|----------7/9--5--7\2--2-5\2-7\5-2--7/9-7/9vv--9/16vv--16/17-16--14\--|
-------|-7--\-----------------------------------------------------------------|
-------|----------------------------------------------------------------------|
-------|----------------------------------------------------------------------|
      Solo G4

------------------------|---------|-------------|-----------------------------|
------------------------|---------|-5/8\5--5----|-----------------------------|
-12-12/14-\-7/9\7/9--vv-|---------|-6/9\6--6----|-----------------------------|
------------------------|---------|--------7----|-----------------------------|
------------------------|---------|-------------|-----------------------------|
------------------------|---------|-------------|-----------------------------|
                          Chorus   End
Добавлено: 11.03.2012
Другие материалы по этой песне:
  • Аккорды и текст

Страница создана 11.03.2012
http://primanota.ru/army-of-anyone/leave-it-chords.htm
Привет, Гость.
Предлагаем пройти революционный курс по гитаре.
Подарок от PrimaNota.Ru, забирай!