PrimaNota.ru - самый крупный в мире бесплатный архив песенных текстов, аккордов, табулатур и нот


Army Of Anyone - It Doesnt Seem To Matter - текст песни, таба, бас-таба, видео

Регистрация Запомнить меня
Войти через:  Facebook Google Twitter Vk Yandex Mail.ru

Army Of Anyone - It Doesnt Seem To Matter - текст песни, таба, бас-таба, видео

Печатать
Просмотров: 202
Уроки эстрадного вокала в Санкт-Петербурге
Авторы музыки: Robert DeLeo, Dean DeLeo
Авторы текста: Richard Patrick
Author/Artist: Army Of Anyone
Title: It Doesn't Seem To Matter
Transcribed by: Saverain
h hammer on
p pull off
/ slide up
\ slide down
b bend
r release bend

http://www.geocities.com/tabevolution

Tuning: D tuning (D A D G B e)

-------|---------------------|------------------------------------------------|
-------|-----5-5--------5-5--|------------------------------------------------|
-------|-----7-7--------7-7--|------------------------------------------------|
-------|-----7-7--------7-7--|------------------------------------------------|
-------|---------------------|------------------------------------------------|
-------|-7h8------7-7h8------|------------------------------------------------|
  Intro

-------|---------------------------------------------0-0------------0-0--|----|
-------|---------------------------------------------5-5------------5-5--|----|
-------|---------------------------------------------7-7------------7-7--|----|
-------|-----------------------------------------------------------------|----|
-------|-----------------------------------------------------------------|----|
-------|-10h12-12-12-0-0-0-0-3-3-3-3-5-5-5-5-8-8-8-8------8-7-8-8-8------|----|
  Verse   Bass Arranged for Guitar

-------|-3-----2-----3-----2------|-3-----3-----3-----2------|-----------|----|
-------|-3-----3-----3-----3------|-3-----3-----3-----3------|-------3---|----|
-------|-5-----5-----5-----5------|-5-----5-----5-----5------|-1-1-2-----|----|
-------|--------------------------|--------------------------|-0-0-------|----|
-------|--------------------------|--------------------------|-----------|----|
-------|--------------------------|--------------------------|-----------|----|
  PreChorus Pt.                     "We'll lie..."            Out

------|--------------------------------------------------------------|-------|
------|--------------------------------------------------------------|-8/10--|
------|--------------------------------------------------------------|-x-----|
------|--------------------------------------------------------------|-7-----|
------|--------------------------------------------------------------|-0-----|
------|-10h12-12-12-12-10-7--0--5h7-9--10v--9-10-9-10v--9-10-9-10-9--|-------|
Chorus

-------|-------------------------|----------------------------|--|------------|
-------|-8-----------------------|----------------------------|--|------------|
-------|-x--7--6--------7--6--6--|-------7--6--------7--6--6--|--|------------|
-------|-7--------5h7-7----------|-5h7-7-------5h7-7----------|6x|------------|
-------|-0-----------------------|----------------------------|--|------------|
-------|-------------------------|----------------------------|--|------------|
  Interlude G1

-------|-------------------------------|--|-----------------------------------|
-------|-------------------------------|--|-----------------------------------|
-------|-------6---4---------6---6---4-|--|-----------------------------------|
-------|-5-5-5-------5-7---5-----------|2x|-----------------------------------|
-------|-------------------------------|--|-----------------------------------|
-------|-------------------------------|--|-----------------------------------|


-------|-0------|-------------------------------------------------------------|
-------|-2------|-------------------------------------------------------------|
-------|-2------|-------------------------------------------------------------|
-------|-2------|-------------------------------------------------------------|
-------|--------|-------------------------------------------------------------|
-------|--------|-------------------------------------------------------------|
  Interlude G2

-----|------------------------------------------------------------------------|
-----|-19b20r19-19--------------------------------------------18b19r18-15vv---|
-----|-------------19--------------16b17r16-16--------------------------------|
-----|----------------19-17-16-17--------------19-17-16-17-19-----------------|
-----|------------------------------------------------------------------------|
-----|------------------------------------------------------------------------|
   Solo

------------------------------------------------------------------------------|
-13-13--12-12--10-10----------------------------------------------------------|
----------------------12--------14/16br--16brbr\14vv\--------14-12-11h12-14---|
------------------------------------------------------------------------------|
-------------------------12/14-------------------------15/17------------------|
------------------------------------------------------------------------------|


------------------------------------------------------------------------------|
---------------------------------------------------20-----20-19----19---------|
-12-11h12----------14-12-11h12-14-12-14/17-16vv--/-----21-------21-----21--19-|
------------------------------------------------------------------------------|
---------15vv-15/17-----------------------------------------------------------|
------------------------------------------------------------------------------|


------------------------------------------------------------------------------|
------------------------------------------------------------------------------|
-19br--17vvv--17-19-21-19-21-19-21p19-17vv--19-21-19-19-21p19-17vv--19-21-19--|
------------------------------------------------------------------------------|
------------------------------------------------------------------------------|
------------------------------------------------------------------------------|

-------------------------------------------19b20r19-17vvvvvvvvvv-------------|
-------------------------------18-19-20/21-----------------------17----------|
-21-19-21p19-17vv--17-19-20-21-----------------------------------16b17v--vv--|
-----------------------------------------------------------------------------|
-----------------------------------------------------------------------------|
-----------------------------------------------------------------------------|
                                                    Chorus


-------|-3-3------------|-----------------------------------------------------|
-------|-2---3-2---2-5--|-----------------------------------------------------|
-------|-------------3--|-----------------------------------------------------|
-------|----------------|-----------------------------------------------------|
-------|---------0------|-----------------------------------------------------|
-------|----------------|-----------------------------------------------------|
  Outro
Добавлено: 26.03.2012
Другие материалы по этой песне:
  • Аккорды и текст

Страница создана 28.02.2012
http://primanota.ru/army-of-anyone/it-doesnt-seem-to-matter-chords.htm
Привет, Гость.
Предлагаем пройти революционный курс по гитаре.
Подарок от PrimaNota.Ru, забирай!