PrimaNota.ru - самый крупный в мире бесплатный архив песенных текстов, аккордов, табулатур и нот


Army Of Anyone - Goodbye - таба, бас-таба, видео

Регистрация Запомнить меня
Войти через:  Facebook Google Twitter Vk Yandex Mail.ru

Army Of Anyone - Goodbye - таба, бас-таба, видео

Печатать
Просмотров: 181
Уроки эстрадного вокала в Санкт-Петербурге
Авторы музыки: Robert DeLeo, Dean DeLeo
Авторы текста: Richard Patrick
Army of Anyone - Goodbye     http://armyofanyone.com/
Tabbed by: Shawn Klapproth
Tuning: EADGBe (standard)

This is a very rough tab that I wrote in about 15 minutes, so there may be some 
but basically it's an easy to learn song. I didn't tab out the solo, I'll leave that to someone else.


e-------------------------------------------------------------------------|
B-------------------------------------------------------------------------|
G-------------------------------------------------------------------------|
D-7/5-5--7/5-5--7/5-5--7/5-5--7/5\7----7/5-5--7/5-5--7/5-5--7/5-5--7/5----|
A-7/5-5--7/5-5--7/5-5--7/5-5--7/5\7----7/5-5--7/5-5--7/5-5--7/5-5--7/5----|
E-5/3-3--5/3-3--5/3-3--5/3-3--5/3\5----5/3-3--5/3-3--5/3-3--5/3-3--5/3-0--|


Verse 1
e------------------------------------------------------   e-----------------|
B------------------------------------------------------   B-----------------|
G------------------------------------------------------   G-----------------|
D---------------------------------------------/5-5-5-5-   D-5-5-5-5-5-5-5-5-|
A-----0-3--0/5-3----0-0-0-0-------0-3-0/5-3------------   A-----------------|
E-0-3-------------------------0-3----------------------   E-----------------|

pre-chorus
e-----------------------------------------------------------------|
B-----------------------------------------------------------------|
G---------------5--5-5-5-5-5-5-5-----------------7--7-7-7-7-7-7-7-|
D-0-2-2-0--------------------------0-2-2-0------------------------|
A---------3-0--/3--3-3-3-3-3-3-3-----------3-0--/5--5-5-5-5-5-5-5-|
E-----------------------------------------------------------------|


Chorus
e---------------------------------------------------------     e-----|
B---------------------------------------------------------     B-2---|
G-1-2-4--1-2-4---0-2-4--0-2-4-----0-2---0-2-----0-2---0-2-     G-2---|
D-------------------------------4-----4-------2-----2-----     D-2---|
A---------------------------------------------------------     A-0---|
E---------------------------------------------------------     E-----|

e-------------------------------------------------------------------------|
B-------------------------------------------------------------------------|
G-------------------------------------------------------------------------|
D-7/5-5--7/5-5--7/5-5--7/5-5--7/5\7----7/5-5--7/5-5--7/5-5--7/5-5--7/5----|
A-7/5-5--7/5-5--7/5-5--7/5-5--7/5\7----7/5-5--7/5-5--7/5-5--7/5-5--7/5----|
E-5/3-3--5/3-3--5/3-3--5/3-3--5/3\5----5/3-3--5/3-3--5/3-3--5/3-3--5/3-0--|


Verse 2
e------------------------------------------------------   e-----------------|
B------------------------------------------------------   B-----------------|
G------------------------------------------------------   G-----------------|
D---------------------------------------------/5-5-5-5-   D-5-5-5-5-5-5-5-5-|
A-----0-3--0/5-3----0-0-0-0-------0-3-0/5-3------------   A-----------------|
E-0-3-------------------------0-3----------------------   E-----------------|


pre-chorus
e-----------------------------------------------------------------|
B-----------------------------------------------------------------|
G---------------5--5-5-5-5-5-5-5-----------------7--7-7-7-7-7-7-7-|
D-0-2-2-0--------------------------0-2-2-0------------------------|
A---------3-0--/3--3-3-3-3-3-3-3-----------3-0--/5--5-5-5-5-5-5-5-|
E-----------------------------------------------------------------|


Chorus
e---------------------------------------------------------     e-----|
B---------------------------------------------------------     B-2---|
G-1-2-4--1-2-4---0-2-4--0-2-4-----0-2---0-2-----0-2---0-2-     G-2---|
D-------------------------------4-----4-------2-----2-----     D-2---|
A---------------------------------------------------------     A-0---|
E---------------------------------------------------------     E-----|


e-----------------------------------|
B-----------------------------------|
G-----------------------------------|
D-7/5-5--7/5-5--7/5-5--7/5-5--7/5---|
A-7/5-5--7/5-5--7/5-5--7/5-5--7/5---|
E-5/3-3--5/3-3--5/3-3--5/3-3--5/3-0-|

solo (rhythm guitar written)

e------------------------------------------------------   e-----------------|
B------------------------------------------------------   B-----------------|
G------------------------------------------------------   G-----------------|
D---------------------------------------------/5-5-5-5-   D-5-5-5-5-5-5-5-5-|
A-----0-3--0/5-3----0-0-0-0-------0-3-0/5-3------------   A-----------------|
E-0-3-------------------------0-3----------------------   E-----------------|


e---------------------------------------------------------|
B---------------------------------------------------------|
G-1-2-4--1-2-4---0-2-4--0-2-4-----0-2---0-2-----0-2---0-2-|
D-------------------------------4-----4-------2-----2-----|
A---------------------------------------------------------|
E---------------------------------------------------------|

end solo


e---------------------------------------------------------|
B---------------------------------------------------------|
G-1-2-4--1-2-4---0-2-4--0-2-4-----0-2---0-2-----0-2---0-2-|
D-------------------------------4-----4-------2-----2-----|
A---------------------------------------------------------|
E---------------------------------------------------------|
repeat to fade out
Добавлено: 21.02.2012
Другие материалы по этой песне:

Страница создана 21.02.2012
http://primanota.ru/army-of-anyone/goodbye-chords.htm
Привет, Гость.
Предлагаем пройти революционный курс по гитаре.
Подарок от PrimaNota.Ru, забирай!