PrimaNota.ru - самый крупный в мире бесплатный архив песенных текстов, аккордов, табулатур и нот


Army Of Anyone - Good Time To Loosen - таба, видео

Регистрация Запомнить меня
Войти через:  Facebook Google Twitter Vk Yandex Mail.ru

Army Of Anyone - Good Time To Loosen - таба, видео

Печатать
Просмотров: 95
Army of Anyone - "Good Time to Loosen"
Outtake from Debut Recording
Standard Tuning - All Guitars
tabbed by jjhand

This is a song from the Army of Anyone debut album sessions that did not 
make it onto the album but can be found on the internet. Good crunchy guitar 
riffs and nice solo by Dean here. Please rate or comment.


Verse - Guitar 1 - Heavy Distortion, played 3x
e|----------------------|-------------|----------------------|------------------|
B|----------------------|-------------|----------------------|------------------|
G|------2-------5----5--|-------------|-----------5--5----5--|-4------4-4---4-4-|
D|-2----2----5--5----5--|-5-------5-6-|-7---------5--3----3--|-4------4-4---4-4-|
A|-2----0----5--3----3--|-5-------5-6-|-7----5----3--3----3--|-2------2-2---2-2-|
E|-0---------3--3----3--|-3-------3-4-|-5----5---------------|------------------|

Lyrics (during each even bar):

"I've learned to climb these walls,
Under these conditions.
I've had to learn how to fall,
That's my main mission.
All hell's invision, in a way its a"




Chorus - 2 Guitars, played 4x 

   Dist Guitar 1
e|----------------------------|---------------------------|
B|----------------------------|---------------------------|
G|----------------------------|---------------------------|
D|----------------------------|-------------------5-------|
A|-7----7---7-7/9--9---7/9\7--|-5----5---5-5--5/7-3-5-5-7-|
E|-5----5---5-5/7--7---5/7\5--|-3----3---3-3--3/5---3-3-5-|
 |
 | Clean Guitar 2
e|-0----0---0-0----0----------|-0----0---0-0--0-----------|
B|-0----0---0-0----0----------|-0----0---0-0--0-----------|
G|-6----6---6-8----8----------|-4----4---4-4--6-----------|
D|-7----7---7-9----9----------|-5----5---5-5--7-----------|
A|-7----7---7-9----9----------|-5----5---5-5--7-----------|
E|-5----5---5-7----7----------|-3----3---3-3--5-----------|

1. "Good time to loosen        my time is moving"
2. "Its got a hold on   me"
3. "She's got to live on,   So I blame commitment"
4. "Its got a hold on   me"


End of Chorus - repeat final bar once and hold out final chord (A)








Verse 2, Second Guitar Plays this with Verse Riff:

                                          1st Ending          2nd Ending 
e|--------0---0-----------0---0--------|-0-------------|    |---------------|
B|7b9---7p5-7p5------5b7--5p3-5p3------|-0-------------|    |-3b4~~~~-------|
G|-------------------------------------|---------------|    |---------------|
D|-------------------------------------|---------------|    |---------------|
A|-------------------------------------|---------------|    |---------------|
E|-------------------------------------|---------------|    |---------------|
   notes on high E string are lightly played

Play Verse Again

Lyrics:
"I've got to hand it to you,
Cause under these conditions,
Only the cocky will fall,
But you got it under control.
All hell's around you, in a way its a"






Play Chorus Again (1:52)




Bridge (played 2x):

   Guitar 1
e|-----------------|-----------------|-------------------|-------------------|
B|-3------3--------|-0------1--------|-5---5---5---5-----|-5---5---5---5-----|
G|-2------2--------|-0------0--------|-5---5---5---5-----|-5---5---5---5-----|
D|-0------0--------|-0------2--------|-4---5---5---4-----|-4---5---5---4-----|
A|-0------0--------|-2------3--------|-0---0---0---0-----|-0---0---0---0-----|
E|-----------------|-----------------|-------------------|-------------------|
 |
 | Lead Guitar
e|-3----3-2--------|---0---0---------|-------------------|-------------------|
B|----------5p3----|-3b5--b5-3-1p0---|--play above part--|-------------------|
G|-----------------|-----------------|-------------------|-------------------|
D|-----------------|-----------------|-------------------|-------------------|
A|-----------------|-----------------|-------------------|-------------------|
E|-----------------|-----------------|-------------------|-------------------|
      "Let go of my hand,          I'm begging you."





Solo - with Verse riff playing on Guitar 1

e|-0-10h12-0-0-10h12-0-0-10h12-0-0-10h12-0-0-12p0-0-10p0-0------------------|
B|--------------------------------------------------------10p0-8p0-10p0-8p0-|
G|--------------------------------------------------------------------------|
D|--------------------------------------------------------------------------|
A|--------------------------------------------------------------------------|
E|--------------------------------------------------------------------------|

e|----------------------------------------|-----------------------|
B|----------------------------------------|-----------------------|
G|-9b12r----------------------------------|-----------------------|
D|-------7p0-9p0------------------------5-|-7b8~~~~~~~~~~r7-5h7p5-|
A|---------------10p0-7p0--7b10~~---5h7---|-----------------------|
E|----------------------------------------|-----------------------|

e|--------------------------------|------------------------------------|
B|--------------------------------|-7h9~~~-7-------------------------7-|
G|---------7h9-7------------------|----------9p7-9~~~------------------|
D|-5/7-9---------9p7\5-7brb8~~~~--|-------------------7h9p7---7~~~-----|
A|--------------------------------|-------------------------9----------|
E|--------------------------------|------------------------------------|

e|-----------17-15~---------------|-17b19---17b19-17-15-17/19-0-12-0-12/15~--|
B|--------------------17-15-------|------------------------------------------|
G|-9PH~~\-------------------16/19-|------------------------------------------|
D|--------------------------------|------------------------------------------|
A|--------------------------------|------------------------------------------|
E|--------------------------------|------------------------------------------|

e|-(15)~~~~~\---------------------|
B|--------------------------------|
G|--------------------------------|
D|--------------------------------|
A|--------------------------------|
E|--------------5b7~~~~~~\--------|


Play Chorus to end song



KEY
************************************

| /   slide up
| \   slide down
| h   hammer-on
| p   pull-off
| ~   vibrato
| +   harmonic
| x   Mute note
| b   Bend
| pb  Pre-bend
| r  Bend release
| pbr Pre-bend release
| brb Bend release bend

************************************
Добавлено: 24.09.2013
Другие материалы по этой песне:
  • Аккорды и текст

Страница создана 24.09.2013
http://primanota.ru/army-of-anyone/good-time-to-loosen-chords.htm
Привет, Гость.
Предлагаем пройти революционный курс по гитаре.
Подарок от PrimaNota.Ru, забирай!