PrimaNota.ru - самый крупный в мире бесплатный архив песенных текстов, аккордов, табулатур и нот


Army Of Anyone - Disappear - текст песни, таба, бас-таба, видео

Регистрация Запомнить меня
Войти через:  Facebook Google Twitter Vk Yandex Mail.ru

Army Of Anyone - Disappear - текст песни, таба, бас-таба, видео

Печатать
Просмотров: 191
Author/Artist: Army Of Anyone'
Title: Dissapear
Transcribed by: Saverain
d strum diown
u strum up
h hammer on
p pull off
/ slide up
\ slide down
b bend
r release bend

Dean used a dull axe to play this song.  Intro
can be strummed by baring the 5th fret and
playing guitar parts w 1 guitar.

Tuning  = D A E A A C#
Standard Tuning (Only For Solo)

------|----------------------------------------------------------|------------|
------|-------------------7p5---7p5---------------------7p5--7p5-|------------|
------|----------------------------------------------------------|------------|
------|----------------------------------------------------------|------------|
------|----------------------------------------------------------|------------|
------|----------------------------------------------------------|------------|
   G1 intro

------|-5h6--6-6--6-5-------------5-5-5h6--6-6--6-5--------------|------------|
------|-5----5-5--5-5-------------5-5-5----5-5--5-5--------------|------------|
------|----------------------------------------------------------|------------|
------|----------------------------------------------------------|------------|
------|----------------------------------------------------------|------------|
------|----------------------------------------------------------|------------|
   G2 Intro

------|----------------------------------------------------------|------------|
------|-----------------5-5-5-5-5-5-5-5----5-5--5-5---5-5-5-5-5--|------------|
------|-----------------5-5-5-5-5-5-5-5----5-5--5-5---5-5-5-5-5--|------------|
------|-----------------5-5-5-5-5-5-5-5----5-5--5-5---5-5-5-5-5--|------------|
------|-----------------5-5-5-5-5-5-5-5----5-5--5-5---5-5-5-5-5--|------------|
------|----------------------------------------------------------|------------|
   G3 Intro

------|----------------------------------------------------------|------------|
------|-5------5--5-5-------------5-5-5------5--5-5-----5-5-5-5--|------------|
------|-5------5--5-5-------------5-5-5------5--5-5-----5-5-5-5--|------------|
------|-5------5--5-5-------------5-5-5------5--5-5-----5-5-5-5--|------------|
------|-5------5--5-5-------------5-5-5------5--5-5-----5-5-5-5--|------------|
------|----------------------------------------------------------|------------|
   G4 G5 Intro

------|----------------------------------------------------------|------------|
------|----------------------------------------------------------|------------|
------|----------------------------------------------------------|------------|
------|----------------------------------------------------------|------------|
------|-3h5----5--3/5----5-5-5-5-5----3h5--5-5--5-5---5-5-5-5-5--|------------|
------|----------------------------------------------------------|------------|
   G6 Intro

----|-6--6--5---------6--6--5-----------6--6--5-----------6--6--5------------|
----|---------7p5-7p5----------7p5-7p5-----------5p3-5p3-----------7p5-7p5---|
----|------------------------------------------------------------------------|
----|------------------------------------------------------------------------|
----|------------------------------------------------------------------------|
----|------------------------------------------------------------------------|
   Verse D                              C

----|-6--6--5-----------6--6--5-----------|-----------------------------------|
----|----------7p5-7p5-----------7p5-7p5--|-----------------------------------|
----|-------------------------------------|-----------------------------------|
----|-------------------------------------|-----------------------------------|
----|-------------------------------------|-----------------------------------|
----|-------------------------------------|-----------------------------------|
   Verse Out

-|---------------------------------------6--6--5-----------6--6--5-----------|
-|----5p4-4----5p4-4-4-4------5--7p5-7p5----------7p5-7p5-----------7p5-7p5--|
-|-0---------------------3--3------------------------------------------------|
-|-0--------0------------3---------------------------------------------------|
-|-0--------0------------3---------------------------------------------------|
-|---------------------------------------------------------------------------|
   PreChorus Riff "I watch how the world.."

------|-8----------11---------10-----------9-----------|--|-------------------|
------|----9----------------------10-------------------|--|-------------------|
------|----------------9----------------------10-------|--|-------------------|
------|-------10----------8-----------10----------9----|--|-------------------|
------|------------------------------------------------|--|-------------------|
------|------------------------------------------------|--|-------------------|
  Chorus

------|-8-----------11----------|---------------------------------------------|
------|----9--------------------|---------------------------------------------|
------|-----------------9-------|---------------------------------------------|
------|-------10-----------8----|---------------------------------------------|
------|-------------------------|---------------------------------------------|
------|-------------------------|---------------------------------------------|
  Chorus end

------|------------------|--|--------------|------------------|---------------|
------|------------------|--|--------------|------------------|---------------|
------|-10brbr-9---7--5--|--|-7brbr-9-\5vv-|-7brbr-9-\-/17vvv-|---------------|
------|------------------|2x|--------------|------------------|---------------|
------|------------------|--|--------------|------------------|---------------|
------|------------------|--|--------------|------------------|---------------|
  G2 During z2nd Verse        1st time end     2nd time end

------|-----------------------------------------------------------------------|
------|-----------------------------------------------------------------------|
------|-15b16r15---16b-14-16b-14-15b17-vvv--17-16-14--------------------------|
------|----------------------------------------------17-----------------------|
------|--------------------------------------------------17-15-14b15----------|
------|---------------------------------------------------------------15-14---|
     Standard Tuning Solo

------------------------------------------------------------------------------|
------------------------------------------------------------------------------|
-------------------------------------------------------------------9----9-11--|
--------------------------0-2p0---0-2-5-4--5-7p5-4-5-7-10-9---7/10---10-------|
-----0-2-2vv-2p0---2/5-vv-------4---------------------------------------------|
-8vv-------------3------------------------------------------------------------|


------------------------------------------------------------------------------|
-------------------------------------------------3---------------3------------|
-11-11--12-12p11-9-11-9-7-5--7-5-4-5-4-2-0-4b5r4---4b5r4-2-2p0----------7-----|
---------------------------------------------------------------5----3/5---5h7-|
------------------------------------------------------------------------------|
------------------------------------------------------------------------------|


------------------------------------------------------------------------|-----|
--------------------------------------------------17/19-17--------------|-----|
---9-----11---------13-------15----------17-----------------19-19-------|-----|
-7---7/9----9h11-11----11/13----13h15-15----15/17-----------------------|-----|
------------------------------------------------------------------------|-----|
------------------------------------------------------------------------|-----|


------|-8------------11-------------------10----------------------11---------|
------|----9-----------------------------------------------------------12----|
------|------------------9--------10-----------7-----10---10-----------9-----|
------|-------10------------8---------10----------8-----------10-------------|
------|----------------------------------------------------------------5-----|
------|----------------------------------------------------------------------|
  Outro                                                                5>G2Author/Artist: Army Of Anyone'
Title: Dissapear
Transcribed by: Saverain
d strum diown
u strum up
h hammer on
p pull off
/ slide up
\ slide down
b bend
r release bend

Hint: I added a better way to play it alone on the
bottom of the tab, one man band.

Standard tuning (E A D G B e)

------|-2h3--3--3-2----------------|------------------------------------------|
------|-3----3--3-3--5-5p3-5p3-3-3-|------------------------------------------|
------|-2----2--2-2--2-2---2---2-2-|------------------------------------------|
------|-0----0--0-0--0-0---0---0-0-|------------------------------------------|
------|----------------------------|------------------------------------------|
------|----------------------------|------------------------------------------|
  Intro d    u  u d  u d   d   d u

---|-3--3--2----------3--3--2-----------3--3--2-----------3--3--2----------|--|
---|----------5p3-5p3----------5p3-5p3-----------3p1-3p1-----------5p3-5p3-|--|
---|-----------------------------------------------------------------------|--|
---|-----------------------------------------------------------------------|--|
---|-----------------------------------------------------------------------|--|
---|-----------------------------------------------------------------------|--|
  Verse D                               C

---|-3--3--2-----------3--3--2-----------|------------------------------------|
---|----------5p3-5p3-----------5p3-5p3--|------------------------------------|
---|-------------------------------------|------------------------------------|
---|-------------------------------------|------------------------------------|
---|-------------------------------------|------------------------------------|
---|-------------------------------------|------------------------------------|
  Verse Out D

-|---------------------------------------3--3--2-----------3--3--2-----------|
-|----3p2-2----3p2-2-2-2------3--5p3-5p3----------5p3-5p3-----------5p3-5p3--|
-|-2---------------------5--5------------------------------------------------|
-|-2--------2------------5---------------------------------------------------|
-|-0--------0------------3---------------------------------------------------|
-|---------------------------------------------------------------------------|
   PreChorus Riff "I watch how the world.."


------|-----------------------------------------------------|--|--------------|
------|-10-----------13-----------12-----------11-----------|--|--------------|
------|-----11-----------11-----------12-----------12-------|--|--------------|
------|---------12-----------10-----------12-----------11---|--|--------------|
------|-----------------------------------------------------|--|--------------|
------|-----------------------------------------------------|--|--------------|
  Chorus

------|---------------------------|-------------------------------------------|
------|-10-----------13-----------|-------------------------------------------|
------|-----11-----------11-------|-------------------------------------------|
------|---------12-----------10---|-------------------------------------------|
------|---------------------------|-------------------------------------------|
------|---------------------------|-------------------------------------------|
  Chorus end

------|------------------|--|--------------|------------------|---------------|
------|------------------|--|--------------|------------------|---------------|
------|-12brbr-11--9--7--|--|-9brbr-11\7vv-|-9brbr-11\-/19vvv-|---------------|
------|------------------|2x|--------------|------------------|---------------|
------|------------------|--|--------------|------------------|---------------|
------|------------------|--|--------------|------------------|---------------|
  G2 During z2nd Verse        1st time end     2nd time end

------|-----------------------------------------------------------------------|
------|-----------------------------------------------------------------------|
------|-15b16r15---16b-14-16b-14-15b17-vvv--17-16-14--------------------------|
------|----------------------------------------------17-----------------------|
------|--------------------------------------------------17-15-14b15----------|
------|---------------------------------------------------------------15-14---|


------------------------------------------------------------------------------|
------------------------------------------------------------------------------|
-------------------------------------------------------------------9----9-11--|
--------------------------0-2p0---0-2-5-4--5-7p5-4-5-7-10-9---7/10---10-------|
-----0-2-2vv-2p0---2/5-vv-------4---------------------------------------------|
-8vv-------------3------------------------------------------------------------|


------------------------------------------------------------------------------|
-------------------------------------------------3---------------3------------|
-11-11--12-12p11-9-11-9-7-5--7-5-4-5-4-2-0-4b5r4---4b5r4-2-2p0----------7-----|
---------------------------------------------------------------5----3/5---5h7-|
------------------------------------------------------------------------------|
------------------------------------------------------------------------------|


------------------------------------------------------------------------|-----|
--------------------------------------------------17/19-17--------------|-----|
---9-----11---------13-------15----------17-----------------19-19-------|-----|
-7---7/9----9h11-11----11/13----13h15-15----15/17-----------------------|-----|
------------------------------------------------------------------------|-----|
------------------------------------------------------------------------|-----|

------|----------------------------------------------------------------------|
------|-10-----------12-------------------12---------------------13---10-----|
------|-----11-----------11-------12-----------9------12---12---------11-----|
------|---------12-----------10-------12----------10----------12------0------|
------|----------------------------------------------------------------------|
------|----------------------------------------------------------------------|
  Outro

----------------\-|-2h3--3---2------------|--|-2h3--3---2------------|--------|
----------------/-|-3----3---3--5-5p3-5p3-|--|-1----1---1--1-3p1-3p1-|--------|
----------------\-|-2----2---2--2-2---2---|--|-0----0---0--0-0---0---|--------|
----------------/-|-0----0---0--0-0---0---|2x|-2----2---2--2-2---2---|--------|
----------------\-|-----------------------|--|-----------------------|--------|
----------------/-|-----------------------|--|-----------------------|--------|
  One Man Band     Verse

------------------|---------------3-----|-2h3--3---2-------------|--|-\-------|
------------------|---------------3--3--|-3----3---3--5-5p3-5p3--|--|-/-------|
------------------|-2---2--2--5---5--5--|-2----2---2--2-2---2----|--|-\-------|
------------------|-2---2--2--5---5--5--|-0----0---0--0-0---0----|2x|-/-------|
------------------|-0---0--0--3---3--3--|------------------------|--|-\-------|
------------------|---------------------|------------------------|--|-/-------|
        PreChorus   Or just strum  ^      Or play like intro ^
Добавлено: 09.03.2012
Другие материалы по этой песне:
  • Аккорды и текст

Страница создана 09.03.2012
http://primanota.ru/army-of-anyone/disappear-chords.htm
Привет, Гость.
Предлагаем пройти революционный курс по гитаре.
Подарок от PrimaNota.Ru, забирай!