PrimaNota.ru - самый крупный в мире бесплатный архив песенных текстов, аккордов, табулатур и нот


Army Navy - Reveille - таба, видео

Регистрация Запомнить меня
Войти через:  Facebook Google Twitter Vk Yandex Mail.ru

Army Navy - Reveille - таба, видео

Печатать
Просмотров: 139
-------------------------------------------------------------------------------
                             Reiveille - Military
-------------------------------------------------------------------------------
Tabbed by: 97rs24
Email: reveille@spamgang.com

Tuning: EADGBE

This is the song that signals to people in the Military to wake up.

e|---------------------------------------------------------------------------|
B|-------12--16--12------16--12--16--12------16--12--16--12------12--16--12--|
G|---11--------------11------------------11------------------11--------------|
D|---------------------------------------------------------------------------|
A|---------------------------------------------------------------------------|
E|---------------------------------------------------------------------------|

e|---------------------------------------------------------------------------|
B|-------12--16--12------16--12--16--12------16--12--16--12------12--------12|
G|---11--------------11------------------11------------------11------11--11--|
D|---------------------------------------------------------------------------|
A|---------------------------------------------------------------------------|
E|---------------------------------------------------------------------------|

e|-16--16--16--16--16--19--16--16--16--16--16---------12--16--12------16--12-|
B|---------------------------------------------11--11-------------11---------|
G|---------------------------------------------------------------------------|
D|---------------------------------------------------------------------------|
A|---------------------------------------------------------------------------|
E|---------------------------------------------------------------------------|

e|-16--12------16--12--16--12------16--12------------------------------------|
B|---------11------------------11--------------------------------------------|
G|---------------------------------------------------------------------------|
D|---------------------------------------------------------------------------|
A|---------------------------------------------------------------------------|
E|---------------------------------------------------------------------------|

You can also play it an octave lower by using you B barre chord.  I will tell you what 
to hit when your in your B barre chord: 5 4 3 4 5 3 4 3 4 5 3 4 3 4 5 4 3 4 5 4 3 4 5 3 4 
4 5 3 4 3 4 5 4 3 4 4 4 4 4 4 4 3 4 4 4 4 4 5 5 4 3 4 5 3 4 3 4 5 3 4 3 4 5 4 5 4.

B barre chord diagram:
e|7
B|7
G|8
D|9
A|9
E|7


| X2 play twice
| b  bend
| /  slide up
| \  slide down
| h  hammer-on
| p  pull-off
| ~  vibrato
| +  harmonic
| x  Mute note
===============================================================================
© 97rs24-2009
Добавлено: 03.06.2012
Другие материалы по этой песне:
  • Аккорды и текст

Страница создана 03.06.2012
http://primanota.ru/army-navy/reveille-chords.htm
Привет, Гость.
Предлагаем пройти революционный курс по гитаре.
Подарок от PrimaNota.Ru, забирай!