PrimaNota.ru - самый крупный в мире бесплатный архив песенных текстов, аккордов, табулатур и нот


Armored Saint - Dropping Like Flies - текст песни, таба, видео

Регистрация Запомнить меня
Войти через:  Facebook Google Twitter Vk Yandex Mail.ru

Armored Saint - Dropping Like Flies - текст песни, таба, видео

Печатать
Просмотров: 187
Уроки эстрадного вокала в Санкт-Петербурге
Song: Dropping Like Flies
Band: Armored Saint
Album: Symbol of Salvation
Tabbed by: iloveamanda12

Intro/Pre-verse 1

gtr 1
    . . . .   . .   . . .          . . . .   . .   . . .
d#|----------------------------------------------------------|
A#|----------------------------------------------------------|
F#|------------------------------------------------------3-5-|
C#|-----------------------1p0----------------------------3-5-|
G#|---------1-----3-----------1p0----------1-----3-------1-3-|
D#|-3-3-3-3---3-3---3-3-3----------3-3-3-3---3-3---3-3-3-----|

gtr 2
    . . . .   . .   . . .          . . . .   . .   . . .
d#|----------------------------------------------------------|
A#|----------------------------------------------------------|
F#|------------------------------------------------------3-5-|
C#|-----------------------1p0----------------------------3-5-|
G#|---------1-----3-----------1p0----------1-----3-------1-3-|
D#|-3-3-3-3---3-3---3-3-3----------3-3-3-3---3-3---3-3-3-----|

=

gtr 1
    . . . .   . .   . . .          . . . .   . .   . . .
d#|----------------------------------------------------------|
A#|----------------------------------------------------------|
F#|------------------------------------------------------3-5-|
C#|-----------------------1p0----------------------------3-5-|
G#|---------1-----3-----------1p0----------1-----3-------1-3-|
D#|-3-3-3-3---3-3---3-3-3----------3-3-3-3---3-3---3-3-3-----|

gtr 2

d#|----------------------------------------------------------|
A#|-------------------------------------------------------18-|
F#|----------------------------------------------------------|
C#|-----------------------1p0--------------------------------|
G#|---------1-----3-----------1p0----------1-----3-----------|
D#|-3-3-3-3---3-3---3-3-3----------3-3-3-3---3-3---3-3-3-----|

=

gtr 1
    . . . .   . .   . . .          . . . .   . .   . . .
d#|----------------------------------------------------------|
A#|----------------------------------------------------------|
F#|------------------------------------------------------3-5-|
C#|-----------------------1p0----------------------------3-5-|
G#|---------1-----3-----------1p0----------1-----3-------1-3-|
D#|-3-3-3-3---3-3---3-3-3----------3-3-3-3---3-3---3-3-3-----|

gtr 2

d#|-15--------------------17------------------------------18-|
A#|------------18b~------------------20b~--------------------|
F#|----------------------------------------------------------|
C#|----------------------------------------------------------|
G#|----------------------------------------------------------|
D#|----------------------------------------------------------|

=

gtr 1
    . . . .   . .   . . .          . . . .   . .   . . .
d#|---------------------------------------------------------------|
A#|---------------------------------------------------------------|
F#|-------------------------------------------------------5-------|
C#|-----------------------1p0-----------------------------5--3----|
G#|---------1-----3-----------1p0----------1-----3--------3--3----|
D#|-3-3-3-3---3-3---3-3-3----------3-3-3-3---3-3---3-3-3-----1----|

gtr 2

d#|---------------------20-----------18b~-------------------15----|
A#|-19b~------------------------------------------------/15----15-|
F#|---------------------------------------------------------------|
C#|---------------------------------------------------------------|
G#|---------------------------------------------------------------|
D#|---------------------------------------------------------------|

======

Verse 1 ("Any minute, the sparks will fly...")

gtr 1
           . .          . . . . . . . .
d#|------------------------------------------------------|
A#|------------------------------------------------------|
F#|------------8----------------------------------5------|
C#|-5----------8------------------------8-7----8--5----3-|
G#|-5------3-3-6------------------------8-7----8--3----3-|
D#|-3-------------------3-3-3-3-3-3-3-3-6-5----6-------1-|

gtr 2
           . .          . . . . . . . .
d#|------------------------------------------------------|
A#|-18b~-------------------------------------------------|
F#|------------8----------------------------------5------|
C#|------------8------------------------8-7----8--5----3-|
G#|--------3-3-6------------------------8-7----8--3----3-|
D#|---------------------3-3-3-3-3-3-3-3-6-5----6-------1-|

=

gtr 1
           . .          . .
d#|---------------------------------------------|
A#|---------------------------------------------|
F#|------------8------------10--------5----7--8-|
C#|-5----------8------------10--------5----7--8-|
G#|-5------0-5-6--------5-6-8---------3----5--6-|
D#|-3-------------------------------------------|

gtr 2
           . .          . .
d#|---------------------------------------------|
A#|---------------------------------------------|
F#|------------8------------10--------5----7--8-|
C#|-5----------8------------10--------5----7--8-|
G#|-5------0-5-6--------5-6-8---------3----5--6-|
D#|-3-------------------------------------------|

=

gtr 1
        . . . . .     . . . . .     . .     . .     . .    
d#|---------------------------------------------------------|
A#|---------------------------------------------------------|
F#|---------------------------------------------------------|
C#|---------------------------------------------------------|
G#|---------------------------------------------------------|
D#|-6p3-3-3-3-3-3-6p3-3-3-3-3-3-6p3-3-3-6p3-3-3-6p3-3-3-6p3-|


gtr 2
    .   . . . . . .   . . . . .     . .     . .     . .
d#|---------------------------------------------------------|
A#|---------------------------------------------------------|
F#|-3p2-----------3p2-----------3p2-----3p2-----3p2-----3/5-|
C#|-----0-0-0-0-0-----0-0-0-0-0-----0-0-----0-0-----0-0-----|
G#|---------------------------------------------------------|
D#|---------------------------------------------------------|

======

Chorus 1 ("Gather up and take a sigh...")

gtr 1 & 2      
                                           x2
d#|----------------------------------------|
A#|----------------------------------------|
F#|------5\3--3-----------------------3--5-|
C#|-5----5\3--3----5\3--3----8\7-5----3--5-|
G#|-5----3\1--1----5\3--3----8\7-5----1--3-|
D#|-3--------------3\1--1----6\5-3---------|

======

Pre-verse 2

gtr 1
    . . . .   . .   . . .          . . . .   . .   . . .
d#|----------------------------------------------------------|
A#|----------------------------------------------------------|
F#|------------------------------------------------------3-5-|
C#|-----------------------1p0----------------------------3-5-|
G#|---------1-----3-----------1p0----------1-----3-------1-3-|
D#|-3-3-3-3---3-3---3-3-3----------3-3-3-3---3-3---3-3-3-----|

gtr 2

d#|-10-------------------------------------------------------|
A#|-11----11h14p11p10-11~--10h11----13p10--------------------|
F#|------------------------------12-------12-10--------------|
C#|---------------------------------------------13~----------|
G#|----------------------------------------------------------|
D#|----------------------------------------------------------|

=

gtr 1
    . . . .   . .   . . .          . . . .   . .   . . .
d#|---------------------------------------------------------------|
A#|---------------------------------------------------------------|
F#|-------------------------------------------------------5-------|
C#|-----------------------1p0-----------------------------5--3----|
G#|---------1-----3-----------1p0----------1-----3--------3--3----|
D#|-3-3-3-3---3-3---3-3-3----------3-3-3-3---3-3---3-3-3-----1----|

gtr 2

d#|-15-----15-----15-----15-----18-18b--15h18p15------------------|
A#|----18b----18b----18b----18b------------------18--18b~---------|
F#|---------------------------------------------------------------|
C#|---------------------------------------------------------------|
G#|---------------------------------------------------------------|
D#|---------------------------------------------------------------|

======

Verse 2 ("Some call them noble, but I say they're scum...")

gtr 1
           . .          . . . . . . . .
d#|------------------------------------------------------|
A#|------------------------------------------------------|
F#|------------8----------------------------------5------|
C#|-5----------8------------------------8-7----8--5----3-|
G#|-5------3-3-6------------------------8-7----8--3----3-|
D#|-3-------------------3-3-3-3-3-3-3-3-6-5----6-------1-|


gtr 2
           . .          . . . . . . . .
d#|------------------------------------------------------|
A#|-14b~-------------------------------------------------|
F#|------------8----------------------------------5------|
C#|------------8------------------------8-7----8--5----3-|
G#|--------3-3-6------------------------8-7----8--3----3-|
D#|---------------------3-3-3-3-3-3-3-3-6-5----6-------1-|

=

gtr 1
           . .          . .
d#|---------------------------------------------|
A#|---------------------------------------------|
F#|-------------------------10--------5----7--8-|
C#|-5----------8~-----------10--------5----7--8-|
G#|-5------0-5----------5-6-8---------3----5--6-|
D#|-3-------------------------------------------|

gtr 2
           . .          . .
d#|---------------------------------------------|
A#|---------------------------------------------|
F#|-------------------------10--------5----7--8-|
C#|-5----------8~-----------10--------5----7--8-|
G#|-5------0-5----------5-6-8---------3----5--6-|
D#|-3-------------------------------------------|

=

gtr 1
        . . . . .     . . . . .     . .     . .     . .    
d#|---------------------------------------------------------|
A#|---------------------------------------------------------|
F#|---------------------------------------------------------|
C#|---------------------------------------------------------|
G#|---------------------------------------------------------|
D#|-6p3-3-3-3-3-3-6p3-3-3-3-3-3-6p3-3-3-6p3-3-3-6p3-3-3-6p3-|

gtr 2
        . . . . .     . . . . .     . .     . .     . .
d#|---------------------------------------------------------|
A#|---------------------------------------------------------|
F#|-3p2-----------3p2-----------3p2-----3p2-----3p2-----3/5-|
C#|-----0-0-0-0-0-----0-0-0-0-0-----0-0-----0-0-----0-0-----|
G#|---------------------------------------------------------|
D#|---------------------------------------------------------|

======

Chorus 2 ("Gather up and take a sigh...")

gtr 1 & 2      
                                            x2
d#|----------------------------------------|
A#|----------------------------------------|
F#|------5\3--3-----------------------3--5-|
C#|-5----5\3--3----5\3--3----8\7-5----3--5-|
G#|-5----3\1--1----5\3--3----8\7-5----1--3-|
D#|-3--------------3\1--1----6\5-3---------|

=

gtr 1 & 2

d#|----------------------|
A#|----------------------|
F#|-----------------3--5-|
C#|-3*--3*--8\7--5--3--5-|
G#|-3*--3*--8\7--5--1--3-|
D#|-1*--1*--6\5--3-------|

======

Bridge

gtr 1
        . . . . . .     . .          . .   . . .     . .          . .   . . .     . .
d#|---------------------------------------------------------------------------------------|
A#|---------------------------------------------------------------------------------------|
F#|-------------------------3-5--------------------------3-5--------------------------7-8-|
C#|-------------------------3-5--------------------------3-5--------------------------7-8-|
G#|-------------------------1-3----------1---------------1-3----------4---------------5-6-|
D#|-1h3-3-3-3-3-3-3-1---3-3------1h3-3-3---3-3-3-1---3-3------1h3-3-3---3-3-3-1---3-3-----|

gtr 2

d#|---------------------------------------------------------------------------------------|
A#|---------------------------------------------------------------------------------------|
F#|-------------------------3-5--------------------------3-5--------------------------7-8-|
C#|-3-5---------------------3-5--------------------------3-5--------------------------7-8-|
G#|-3-5---------------------1-3--------------------------1-3--------------------------5-6-|
D#|-1-3-----------------------------------------------------------------------------------|

=

gtr 1

d#|--------------|
A#|--------------|
F#|-8--5--7--3-5-|
C#|-8--5--7--3-5-|
G#|-6--3--5--1-3-|
D#|--------------|

gtr 2

d#|--------------|
A#|--------------|
F#|-8--5--7--3-5-|
C#|-8--5--7--3-5-|
G#|-6--3--5--1-3-|
D#|--------------|

======

Pre-solo

gtr 1

d#|-----------------------------------------------------------------|
A#|----------------------------8--10--------------------------------|
F#|-2--------------------------7--9---------------------------------|
C#|-2--------------------------5--7---------------------------------|
G#|-0---------------------------------------------------------------|
D#|-----------------------------------------------------------------|

gtr 2
        . .     . .     . .     . .     . .     . .     . .     . .
d#|-----------------------------------------------------------------|
A#|-----------------------------------------------------------------|
F#|-7p5-----5p3-----3p2-----3p0-----7p5-----5p3-----5/7-----5/7-----|
C#|-----0-0-----0-0-----0-0-----0-0-----0-0-----0-0-5/7-0-0-5/7-0-0-|
G#|-----------------------------------------------------------------|
D#|-----------------------------------------------------------------|

=

gtr 1

d#|-----------------------------------------------------------------|
A#|----------------------------8--10----------------------------9\8-|
F#|-2--------------------------7--9-----------------------------8\7-|
C#|-2--------------------------5--7-----------------------------6\5-|
G#|-0---------------------------------------------------------------|
D#|-----------------------------------------------------------------|

gtr 2
        . .     . .     . .     . .     . .     . .     . .     . .
d#|-----------------------------------------------------------------|
A#|-----------------------------------------------------------------|
F#|-7p5-----5p3-----3p2-----3p0-----7p5-----5p3-----5/7-----5/7-----|
C#|-----0-0-----0-0-----0-0-----0-0-----0-0-----0-0-5/7-0-0-5/7-0-0-|
G#|-----------------------------------------------------------------|
D#|-----------------------------------------------------------------|

=

gtr 1

d#|-----------------------------------------------------------------|
A#|----------------------------8--10--------------------------------|
F#|-2--------------------------7--9---------------------------------|
C#|-2--------------------------5--7---------------------------------|
G#|-0---------------------------------------------------------------|
D#|-----------------------------------------------------------------|

gtr 2
        . .     . .     . .     . .     . .     . .     . .     . .
d#|-----------------------------------------------------------------|
A#|-----------------------------------------------------------------|
F#|-7p5-----5p3-----3p2-----3p0-----7p5-----5p3-----5/7-----5/7-----|
C#|-----0-0-----0-0-----0-0-----0-0-----0-0-----0-0-5/7-0-0-5/7-0-0-|
G#|-----------------------------------------------------------------|
D#|-----------------------------------------------------------------|

=

gtr 1

d#|---------------------------------------------------------|
A#|---------------------------------------------------------|
F#|-2-------------------------------2-------4-------5-------|
C#|-2-------------------------------2-------4-------5-------|
G#|-0-------------------------------0-------2-------3-------|
D#|---------------------------------------------------------|

gtr 2
        . .     . .     . .     . .     . .     . .     . .
d#|---------------------------------------------------------|
A#|---------------------------------------------------------|
F#|-7p5-----5p3-----3p2-----3p0-----------------------------|
C#|-----0-0-----0-0-----0-0-----0-0-7p5-0-0-5p3-0-0-3p2-0-0-|
G#|---------------------------------------------------------|
D#|---------------------------------------------------------|

======

Solo

gtr 1
    trm'''''''''''''''''''''''
d#|--------------------------------------------------------------------|
A#|-18-17-15-17-15-13-12-11-10-11-13-13p11-11h13-11-10-11-10-----------|
F#|----------------------------------------------------------12-10-12b-|
C#|--------------------------------------------------------------------|
G#|--------------------------------------------------------------------|
D#|--------------------------------------------------------------------|

gtr 1 (cont'd)

d#|----------------------------------------------------------------|
A#|-10-11-13--11-10-11-10------------------------------------------|
F#|-----------------------12-10----9-10-9-10-9----------{14}br-----|
C#|-----------------------------12-------------11-12-10---------12~|
G#|----------------------------------------------------------------|
D#|----------------------------------------------------------------|

gtr 2
                                              .  .  .  . .  . .  .
d#|------------------------------------------------------------------|
A#|------------------------------------------------------------------|
F#|-7*----7*----7--8--10*----10*-------------------------------------|
C#|-7*----7*----7--8--10*----10*----8----7---------------------------|
G#|-5*----5*----5--6--8-*----8-*----8----7-------------------------5-|
D#|---------------------------------6----5----3--3--3--3-3--3-3--3---|

=

gtr 1
    trm''''''''''''''
d#|---------------------------------------15-17br-15-17brp15-17~-|
A#|---------------------17h18p17p15-17-18------------------------|
F#|----------------12~-------------------------------------------|
C#|-12-14-15-14-15-----------------------------------------------|
G#|--------------------------------------------------------------|
D#|--------------------------------------------------------------|

gtr 1 (cont'd)

d#|-17h18p17-15-17h18p17-15-17-17-17h18p17-17-17h18p17-15-17h18h20p18p17-17h18h20p18p17-17-18-17-18-17------------|
A#|----------------------------------------------------------------------------------------------------20br-20-20-|
F#|---------------------------------------------------------------------------------------------------------------|
C#|---------------------------------------------------------------------------------------------------------------|
G#|---------------------------------------------------------------------------------------------------------------|
D#|---------------------------------------------------------------------------------------------------------------|

gtr 2
                                              .  .  .  . .  . .  .
d#|------------------------------------------------------------------|
A#|------------------------------------------------------------------|
F#|-7*----7*----7--8--10*----10*-------------------------------------|
C#|-7*----7*----7--8--10*----10*----8----7---------------------------|
G#|-5*----5*----5--6--8-*----8-*----8----7-------------------------5-|
D#|---------------------------------6----5----3--3--3--3-3--3-3--3---|

=

gtr 1

d#|-20b--20~--17-----|
A#|--------------20b~|
F#|------------------|
C#|------------------|
G#|------------------|
D#|------------------|

gtr 1 (cont'd)
                                                                       
d#|----------15-17----------15-17-17-15--------------------------------|
A#|-15-17-18-------15-17-18-------------18-17-15-----18-17-15----------|
F#|----------------------------------------------17-----------17-15-14-|
C#|--------------------------------------------------------------------|
G#|--------------------------------------------------------------------|
D#|--------------------------------------------------------------------|

gtr 1 (cont'd)
                                                                       
d#|----------15-17----------15-17-17-15--------------------------------|
A#|-15-17-18-------15-17-18-------------18-17-15-----18-17-15----------|
F#|----------------------------------------------17-----------17-15-14-|
C#|--------------------------------------------------------------------|
G#|--------------------------------------------------------------------|
D#|--------------------------------------------------------------------|

gtr 2
              .   . . . . . .   . . . . . .   . . .   . . .   . .
d#|-------------------------------------------------------------------|
A#|---------------------------------------------------------------6/8-|
F#|---------------------------------------------------------------5/7-|
C#|-3----1--------------------------------------------------------3/5-|
G#|-------------------------------------------------------------------|
D#|-----------6p3-3-3-3-3-3-6p3-3-3-3-3-3-6p3-3-3-6p3-3-3-6p3-3-3-----|

======

gtr 1

d#|----------------------------------------|
A#|----------------------------------------|
F#|------5\3--3-----------------------3--5-|
C#|-5----5\3--3----5\3--3----8\7-5----3--5-|
G#|-5----3\1--1----5\3--3----8\7-5----1--3-|
D#|-3--------------3\1--1----6\5-3---------|

gtr 2

d#|-----------------------17------15h17p15-15----15-17-15-18b-20b--20b~|
A#|-19b----19pbrp17~--20-----20~--------------18-----------------------|
F#|--------------------------------------------------------------------|
C#|--------------------------------------------------------------------|
G#|--------------------------------------------------------------------|
D#|--------------------------------------------------------------------|

=

gtr 1

d#|----------------------------------------|
A#|----------------------------------------|
F#|------5\3--3-----------------------3--5-|
C#|-5----5\3--3----5\3--3----8\7-5----3--5-|
G#|-5----3\1--1----5\3--3----8\7-5----1--3-|
D#|-3--------------3\1--1----6\5-3---------|

gtr 2

d#|-15h18p15----15h18p15----15h18p15-------15h18p15h18p15h18p15h18p15h16p15----15-18----------------------|
A#|----------18----------18----------18-15----------------------------------18-------15-18-15----15-17-15-|
F#|-------------------------------------------------------------------------------------------18----------|
C#|-------------------------------------------------------------------------------------------------------|
G#|-------------------------------------------------------------------------------------------------------|
D#|-------------------------------------------------------------------------------------------------------|

gtr 2 (cont'd)

d#|--------------------------------------------------------------------------|
A#|----15--------------------14h15p14-14-------------------------------------|
F#|-18----17-15-17-15-17~----------------15----15b~--17p15-------------------|
C#|-----------------------------------------17-------------17----------15----|
G#|-----------------------------------------------------------17-14-17----17~|
D#|--------------------------------------------------------------------------|

======

Post-Solo ("Can't ya see them up there...")

gtr 1

d#|----------------------------------------------|
A#|----------------------------------------------|
F#|--------------------7--8--10*----10*----------|
C#|-3*--3*----8\7-5----7--8--10*----10*----8\7-5-|
G#|-3*--3*----8\7-5----5--6--8-*----8-*----8\7-5-|
D#|-1*--1*----6\5-3------------------------6\5-3-|

gtr 2

d#|----------------------------------------------|
A#|----------------------------------------------|
F#|--------------------7--8--10*----10*----------|
C#|-3*--3*----8\7-5----7--8--10*----10*----8\7-5-|
G#|-3*--3*----8\7-5----5--6--8-*----8-*----8\7-5-|
D#|-1*--1*----6\5-3------------------------6\5-3-|

=

gtr 1
                     . . . . .     . . . . .     . .     . .     . .    
d#|----------------------------------------------------------------------|
A#|----------------------------------------------------------------------|
F#|-10*----8*------------------------------------------------------------|
C#|-10*----8*------------------------------------------------------------|
G#|-8-*----6*------------------------------------------------------------|
D#|--------------6p3-3-3-3-3-3-6p3-3-3-3-3-3-6p3-3-3-6p3-3-3-6p3-3-3-6p3-|

gtr 2
                     . . . . .     . . . . .     . .     . .     . .
d#|----------------------------------------------------------------------|
A#|----------------------------------------------------------------------|
F#|--------------3p2-----------3p2-----------3p2-----3p2-----3p2-----3/5-|
C#|------------------0-0-0-0-0-----0-0-0-0-0-----0-0-----0-0-----0-0-----|
G#|----------------------------------------------------------------------|
D#|----------------------------------------------------------------------|

======

Chorus 3 ("Gather up and take a sigh...")

gtr 1      

d#|----------------------------------------|
A#|----------------------------------------|
F#|------5\3--3-----------------------3--5-|
C#|-5----5\3--3----5\3--3----8\7-5----3--5-|
G#|-5----3\1--1----5\3--3----8\7-5----1--3-|
D#|-3--------------3\1--1----6\5-3---------|

gtr 2

d#|----------------------------------------|
A#|----------------------------------------|
F#|------5\3--3-----------------------3--5-|
C#|-5----5\3--3----5\3--3----8\7-5----3--5-|
G#|-5----3\1--1----5\3--3----8\7-5----1--3-|
D#|-3--------------3\1--1----6\5-3---------|

=

gtr 1

d#|----------------------------------------|
A#|----------------------------------------|
F#|------5\3--------------------------3--5-|
C#|-5----5\3--3----5\3--3----8\7-5----3--5-|
G#|-5----3\1-------5\3--3----8\7-5----1--3-|
D#|-3--------------3\1--1----6\5-3---------|

gtr 2

d#|----------------------------------------|
A#|----------------------------------------|
F#|------5\3--3-----------------------3--5-|
C#|-5----5\3--3----5\3--3----8\7-5----3--5-|
G#|-5----3\1--1----5\3--3----8\7-5----1--3-|
D#|-3--------------3\1--1----6\5-3---------|

=

gtr 1

d#|----------------------------------------|
A#|----------------------------------------|
F#|------5\3--3-----------------------3--5-|
C#|-5----5\3--3----5\3--3----8\7-5----3--5-|
G#|-5----3\1--1----5\3--3----8\7-5----1--3-|
D#|-3--------------3\1--1----6\5-3---------|

gtr 2
    .   . . . . . . .   . . . . . . .   . . . . . .
d#|-------------------------------------------------10--|
A#|-------------------------------------------------11b-|
F#|-----------------------------------------------------|
C#|-8p5-5-5-5-5-5-5-8p5-5-5-5-5-5-5-8p5-5-5-5-5-5-5-----|
G#|-----------------------------------------------------|
D#|-----------------------------------------------------|

=

gtr 1

d#|----------------------------------------|
A#|----------------------------------------|
F#|------5\3--3-----------------------3--5-|
C#|-5----5\3--3----5\3--3----8\7-5----3--5-|
G#|-5----3\1--1----5\3--3----8\7-5----1--3-|
D#|-3--------------3\1--1----6\5-3---------|

gtr 2
    .   . . . . . . .   . . . . . . .   . . . . . .
d#|-------------------------------------------------10--|
A#|-------------------------------------------------11b-|
F#|-----------------------------------------------------|
C#|-8p5-5-5-5-5-5-5-8p5-5-5-5-5-5-5-8p5-5-5-5-5-5-5-----|
G#|-----------------------------------------------------|
D#|-----------------------------------------------------|

=

gtr 1

d#|----------------------|
A#|----------------------|
F#|-----------------3--5-|
C#|-3*--3*--8\7--5--3--5-|
G#|-3*--3*--8\7--5--1--3-|
D#|-1*--1*--6\5--3-------|

gtr 2

d#|----------------------|
A#|----------------------|
F#|-----------------3--5-|
C#|-3*--3*--8\7--5--3--5-|
G#|-3*--3*--8\7--5--1--3-|
D#|-1*--1*--6\5--3-------|

=

gtr 1

d#|-----------------|
A#|-----------------|
F#|-----------------|
C#|-3*--3*--8\7--5*-|
G#|-3*--3*--8\7--5*-|
D#|-1*--1*--6\5--3*-|

gtr 2

d#|-----------------|
A#|-----------------|
F#|-----------------|
C#|-3*--3*--8\7--5*-|
G#|-3*--3*--8\7--5*-|
D#|-1*--1*--6\5--3*-|

======

Outro Rhythm

Rhythm repeats continuously til fade.

gtr 1
    .   . . . . . . .   . . . . . . .   . . . . . .
d#|---------------------------------------------------------|
A#|---------------------------------------------------------|
F#|-------------------------------------------------3-------|
C#|-------------------------------------------------3--3--5-|
G#|-------------------------------------------------1--3--5-|
D#|-0h3-3-3-3-3-3-3-6p3-3-3-3-3-3-3-0h3-3-3-3-3-3-3----1--3-|

=

gtr 1
    .   . . . . . . .   . . . . . . .   . . . . . .   .
d#|-------------------------------------------------------|
A#|-------------------------------------------------------|
F#|-------------------------------------------------------|
C#|-------------------------------------------------------|
G#|-------------------------------------------------------|
D#|-0h3-3-3-3-3-3-3-6p3-3-3-3-3-3-3-0h3-3-3-3-3-3-3-6-0-3-|

======

Outro Tremolo Bar/Lead Section

Timing is all over, this is the best outline I can give.

gtr 2
    \/ pre-dive, gradual release   \/higher
d#|---------------------------------------------------------|
A#|---------------------------------------------------------|
F#|---------------------------------8-----------------------|
C#|-9-------------------------------------------------------|
G#|---------------------------------------------------------|
D#|---------------------------------------------------------|

gtr 3

d#|---------------------------------------------------------|
A#|---------------------------------------------------------|
F#|---------------------------------------------------------|
C#|---------------------------------------------------------|
G#|---------------------------------------------------------|
D#|---------------------------------------------------------|

=

gtr 2
   \/ gradual''''''''''\/higher then dive'''\/
d#|---------------------------------------------------------|
A#|---------------------9-----------------------------------|
F#|----------------------------------------{10}-------------|
C#|-9------------------------------------------------8------|
G#|---------------------------------------------------------|
D#|---------------------------------------------------------|

gtr 3
           \/~   \/~
d#|---------------7-----------------------------------------|
A#|---------7-----------------------------------------------|
F#|---------------------------------------------------------|
C#|---------------------------------------------------------|
G#|---------------------------------------------------------|
D#|---------------------------------------------------------|

=

gtr 2
                                   \/     \/      \/lower and higher
d#|---------------------------------------15----14TR17-------------|
A#|----------------------------------------------------------------|
F#|----------------------------------------------------------------|
C#|---------------------------------9------------------------------|
G#|----------------------------------------------------------------|
D#|----------------------------------------------------------------|

gtr 3
    \/~ then dive slowly'''''''''''''''''''''''''''''''
d#|----------------------------------------------------------------|
A#|----------------------------------------------------------------|
F#|-[16]-----------------------------------------------------------|
C#|----------------------------------------------------------------|
G#|----------------------------------------------------------------|
D#|----------------------------------------------------------------|

=

gtr 2
    \/~ then dive         \/~  \/    \/    \/  \/
d#|----------------------------15----15----15----------------------|
A#|-11--------------------15-------------------18------------------|
F#|----------------------------------------------------------------|
C#|----------------------------------------------------------------|
G#|----------------------------------------------------------------|
D#|----------------------------------------------------------------|

gtr 3
    \/higher
d#|----------------------------------------------------------------|
A#|----------13----13b~--------------------------------------------|
F#|-13~---------15-------------------------------------------------|
C#|----------------------------------------------------------------|
G#|----------------------------------------------------------------|
D#|----------------------------------------------------------------|

=

gtr 2
                                                    \/higher then dive
d#|-15----------17----------18----------20--18b~-----------------------|
A#|-----18b~--------20b~--------21b~---------------[19]----------------|
F#|--------------------------------------------------------------------|
C#|--------------------------------------------------------------------|
G#|--------------------------------------------------------------------|
D#|--------------------------------------------------------------------|

gtr 3

d#|--------------------------------------------------------------------|
A#|--------------------------------------------------------------------|
F#|--------------------------------------------------------------------|
C#|--------------------------------------------------------------------|
G#|--------------------------------------------------------------------|
D#|--------------------------------------------------------------------|

==========================================================================================================

LEGEND
------

Layout Notation:

====== - Section, such as Bridge or solo, closed (after correct number of plays, move to the next section)
=      - Section, such as Bridge or solo, still active: after correct number of plays, move to next bar.
x(#)   - Repeat as indicated (x3 indicates repeating the riff twice more, etc.)

Grid Notation:

~      - vibrato (bend the string and release rapidly)
*      - deaden note (stop notes from ringing)
#      - pick slide (#\ inidcates sliding lower in pitch, #/ indicates higher in pitch)
X      - dead string (Mute string with your fretting hand)
{}     - pinch harmonic (bring the picking thumb across the string after picking note)
[]     - natural harmonic (lightly rest fretting finger on string, then pick)

/      - slide up (higher in pitch)(2/4 indicates fretting the 2nd fret, then sliding to the 4th without
                a 2nd pick-stroke)
\      - slide down (lower in pitch)(4/2 indicates fretting the 4th fret, then sliding to the 2nd without
                a 2nd pick-stroke)
b      - bend ("16b" would indicate bending the 16th fret)
r      - release bend ("16br" would indicate bending the 16th fret up, then releasing back to neutral position)
br     - bend, then release
brp    - bend, release, then pull; usually in a fluid motion
h      - hammer-on to indicated fret (0h2 indicates picking open string, then fretting the 2nd fret without
                a second pick-stroke)
p      - pull-off to indicated fret (12p10 indicates picking the twelfth fret, then lifting your finger to
                a pre-fretted 10th fret without a second pickstroke)
pb     - pre-bend, in some cases signifies a previous bend being held (bend the string before picking)
pbr    - pre-bend release (bend the string before picking, then release string after picking)
T      - Tap note with pick or a picking hand finger, usually in a quick hammer-on/pull-off section
TR     - trill (10TR12 would indicate to hammer and pull continually between the two specified notes)
trm    - tremolo pick (pick very rapidly)


Above Grid Notation:

.      - palm mute (mute the strings with your picking hand while picking)
\/     - use tremolo bar ("whammy" bar)(either raise or lower the pitch dramatically)
^      - Upstroke (use an up pick-stroke)
Добавлено: 25.07.2015
Другие материалы по этой песне:
  • Аккорды и текст

Страница создана 07.04.2012
http://primanota.ru/armored-saint/dropping-like-flies-chords.htm
Привет, Гость.
Предлагаем пройти революционный курс по гитаре.
Подарок от PrimaNota.Ru, забирай!