PrimaNota.ru - самый крупный в мире бесплатный архив песенных текстов, аккордов, табулатур и нот


Armor For Sleep - Well Own The World - таба, видео

Регистрация Запомнить меня
Войти через:  Facebook Google Twitter Vk Yandex Mail.ru

Armor For Sleep - Well Own The World - таба, видео

Печатать
Просмотров: 77
Уроки эстрадного вокала в Санкт-Петербурге
Tabbed by: Joshua Garcia (joshuag523@aol.com)

Tabs for the song: We'll Own The World by Armor For Sleep
Please rate and let me know if you have any corrections. Thank you.


Tuning: Drop C# (C# G# C# F# A# D#)


Intro
Guitar 1:
D#||-------------------------------------------------|
A#||-------------------------------------------------|
F#||--0-0-----------0-0---------------0-0------------|
C#||------4-4-----------4-4---------------4-4--------|
G#||----------5-5-5---------5-5-5-5-5---------5-5-5--|
C#||-------------------------------------------------|


Guitar 1/2:
D#||---------------------|
A#||---------------------|
F#||---------------------|
C#||--4-4-----4-4--------|
G#||------2-2-----0-0-0--|
C#||---------------------|



Pre-Verse
Guitar 1:
D#||-------------------------------------------------------------------|
A#||-------------------------------------------------------------------|
F#||--0-0-----------0-0---------------0-0------------------------------|
C#||------4-4-----------4-4---------------4-4-------4-4-----4-4--------| x2
G#||----------5-5-5---------5-5-5-5-5---------5-5-5-----2-2-----0-0-0--|
C#||-------------------------------------------------------------------|


Guitar 2:
D#||----------------------------------------------------|
A#||----------------------------------------------------|
F#||---------------------------4--4--444-2---22---2222--|
C#||--5--5--555-2---22---2222--4--4--444-2---22---2222--|
G#||--5--5--555-2---22---2222--2--2--222-0---00---0000--|
C#||--5--5--555-2---22---2222---------------------------|


D#||---------------------------------------------------------|
A#||---------------------------------------------------------|
F#||---------------------------4--4--44----------------------|
C#||--5--5--555-2---22---2222--4--4--44---4-4-----4-4--------|
G#||--5--5--555-2---22---2222--2--2--22-------2-2-----0-0-0--|
C#||--5--5--555-2---22---2222--------------------------------|



Verse
Guitar 1:
D#||------------------------------------------------------------|
A#||--10-10----10-10----5-5----5-5----7-7----7-7----7-7----7-7--|
F#||--11-11----11-11----6-6----6-6----7-7----7-7----7-7----7-7--|
C#||--12-12----12-12----7-7----7-7----9-9----9-9----9-9----9-9--| x2
G#||------------------------------------------------------------|
C#||------------------------------------------------------------|


Guitar 2:
D#||-------------------------------------------------------------------|
A#||-------------------------------------------------------------------|
F#||-------------------------------------------------------------------|
C#||-------------------------------------------------------------------| x2
G#||--5-5-5-5-5-5-5-5-0-0-0-0-0-0-0-0-2-2-2-2-2-2-2-2-2-2-2-2-2-2-2----|
C#||----------------------------------------------------------------0--|
      . . . . . . . . . . . . . . . . . . . . . . . . . . . . . . . .



Pre-Chorus
Guitar 1:
D#||------------------------------------------------|
A#||--10-10-10-10-10------5-5-5-5-5------7-7-7-7-7--|
F#||--11-11-11-11-11------6-6-6-6-6------7-7-7-7-7--|
C#||--12-12-12-12-12------7-7-7-7-7------9-9-9-9-9--|
G#||------------------------------------------------|
C#||------------------------------------------------|


D#||-----------------------------------------------------------------|
A#||--8-8-8-8-8------7-7-7-7-7------5-5-5-5-5-5-5-5-5-5-5-5----------|
F#||--7-7-7-7-7------7-7-7-7-7------7-7-7-7-7-7-7-7-7-7-7-7----------|
C#||--------------------------------------------------------x-x-x-x--|
G#||--------------------------------------------------------x-x-x-x--|
C#||--------------------------------------------------------x-x-x-x--|


Guitar 2:
D#||---------------------------------------|
A#||--3/15~-------15-15-15p14(b)------12~--|
F#||---------------------------------------|
C#||---------------------------------------|
G#||---------------------------------------|
C#||---------------------------------------|


D#||--10----(10~)-------10---------------12-14b~15r14~--|
A#||-----10~--------------------------------------------|
F#||-----------------------11~--------------------------|
C#||----------------------------------------------------|
G#||----------------------------------------------------|
C#||----------------------------------------------------|



Chorus
Guitar 1/2:
D#||----------------------------------------------------|
A#||----------------------------------------------------|
F#||---------------------------4--4--444-2---22---2222--|
C#||--5--5--555-2---22---2222--4--4--444-2---22---2222--|
G#||--5--5--555-2---22---2222--2--2--222-0---00---0000--|
C#||--5--5--555-2---22---2222---------------------------|


D#||---------------------------------------------------------|
A#||---------------------------------------------------------|
F#||---------------------------4--4--44----------------------|
C#||--5--5--555-2---22---2222--4--4--44---4-4-----4-4--------|
G#||--5--5--555-2---22---2222--2--2--22-------2-2-----0-0-0--|
C#||--5--5--555-2---22---2222--------------------------------|


Guitar 1:
D#||-------------------------------------------------------------------|
A#||-------------------------------------------------------------------|
F#||--0-0-----------0-0---------------0-0-------------------2-2-2-2-2--|
C#||------4-4-----------4-4---------------4-4-------4-4-4-4------------|
G#||----------5-5-5---------7-7-7-5-5---------5-5-5--------------------|
C#||-------------------------------------------------------------------|


D#||-------------------------------------------------------------------|
A#||-------------------------------------------------------------------|
F#||--0-0-----------0-0---------------0-0------------------------------|
C#||------4-4-----------4-4---------------4-4-------4-4-----4-4--------|
G#||----------5-5-5---------7-7-7-5-5---------5-5-5-----2-2-----0-0-0--|
C#||-------------------------------------------------------------------|


Guitar 2:
D#||----------------------------------------------------|
A#||----------------------------------------------------|
F#||---------------------------4--4--444-2---22---2222--|
C#||--5--5--555-2---22---2222--4--4--444-2---22---2222--|
G#||--5--5--555-2---22---2222--2--2--222-0---00---0000--|
C#||--5--5--555-2---22---2222---------------------------|


D#||---------------------------------------------------------|
A#||---------------------------------------------------------|
F#||---------------------------4--4--44----------------------|
C#||--5--5--555-2---22---2222--4--4--44---4-4-----4-4--------|
G#||--5--5--555-2---22---2222--2--2--22-------2-2-----0-0-0--|
C#||--5--5--555-2---22---2222--------------------------------|



Verse
Guitar 1:
D#||------------------------------------------------------------|
A#||--10-10----10-10----5-5----5-5----7-7----7-7----7-7----7-7--|
F#||--11-11----11-11----6-6----6-6----7-7----7-7----7-7----7-7--|
C#||--12-12----12-12----7-7----7-7----9-9----9-9----9-9----9-9--| x2
G#||------------------------------------------------------------|
C#||------------------------------------------------------------|


Guitar 2:
D#||-------------------------------------------------------------------|
A#||-------------------------------------------------------------------|
F#||-------------------------------------------------------------------|
C#||-------------------------------------------------------------------| x2
G#||--5-5-5-5-5-5-5-5-0-0-0-0-0-0-0-0-2-2-2-2-2-2-2-2-2-2-2-2-2-2-2----|
C#||----------------------------------------------------------------0--|
      . . . . . . . . . . . . . . . . . . . . . . . . . . . . . . . .



Pre-Chorus
Guitar 1:
D#||------------------------------------------------|
A#||--10-10-10-10-10------5-5-5-5-5------7-7-7-7-7--|
F#||--11-11-11-11-11------6-6-6-6-6------7-7-7-7-7--|
C#||--12-12-12-12-12------7-7-7-7-7------9-9-9-9-9--|
G#||------------------------------------------------|
C#||------------------------------------------------|


D#||-----------------------------------------------------------------|
A#||--8-8-8-8-8------7-7-7-7-7------5-5-5-5-5-5-5-5-5-5-5-5-5-5-5-5--|
F#||--7-7-7-7-7------7-7-7-7-7------7-7-7-7-7-7-7-7-7-7-7-7-7-7-7-7--|
C#||-----------------------------------------------------------------|
G#||-----------------------------------------------------------------|
C#||-----------------------------------------------------------------|


Guitar 2:
D#||---------------------------------------|
A#||--3/15~-------15-15-15p14(b)------12~--|
F#||---------------------------------------|
C#||---------------------------------------|
G#||---------------------------------------|
C#||---------------------------------------|


D#||--10----(10~)-------10---------------12-14b~15r14~--|
A#||-----10~--------------------------------------------|
F#||-----------------------11~--------------------------|
C#||----------------------------------------------------|
G#||----------------------------------------------------|
C#||----------------------------------------------------|



Chorus
Guitar 1/2:
D#||----------------------------------------------------|
A#||----------------------------------------------------|
F#||---------------------------4--4--444-2---22---2222--|
C#||--5--5--555-2---22---2222--4--4--444-2---22---2222--|
G#||--5--5--555-2---22---2222--2--2--222-0---00---0000--|
C#||--5--5--555-2---22---2222---------------------------|


D#||---------------------------------------------------------|
A#||---------------------------------------------------------|
F#||---------------------------4--4--44----------------------|
C#||--5--5--555-2---22---2222--4--4--44---4-4-----4-4--------|
G#||--5--5--555-2---22---2222--2--2--22-------2-2-----0-0-0--|
C#||--5--5--555-2---22---2222--------------------------------|


Guitar 1:
D#||-------------------------------------------------------------------|
A#||-------------------------------------------------------------------|
F#||--0-0-----------0-0---------------0-0-------------------2-2-2-2-2--|
C#||------4-4-----------4-4---------------4-4-------4-4-4-4------------|
G#||----------5-5-5---------7-7-7-5-5---------5-5-5--------------------|
C#||-------------------------------------------------------------------|


D#||-------------------------------------------------------------------|
A#||-------------------------------------------------------------------|
F#||--0-0-----------0-0---------------0-0------------------------------|
C#||------4-4-----------4-4---------------4-4-------4-4-----4-4--------|
G#||----------5-5-5---------7-7-7-5-5---------5-5-5-----2-2-----0-0-0--|
C#||-------------------------------------------------------------------|


Guitar 2:
D#||----------------------------------------------------|
A#||----------------------------------------------------|
F#||---------------------------4--4--444-2---22---2222--|
C#||--5--5--555-2---22---2222--4--4--444-2---22---2222--|
G#||--5--5--555-2---22---2222--2--2--222-0---00---0000--|
C#||--5--5--555-2---22---2222---------------------------|


D#||---------------------------------------------------------|
A#||---------------------------------------------------------|
F#||---------------------------4--4--44----------------------|
C#||--5--5--555-2---22---2222--4--4--44---4-4-----4-4--------|
G#||--5--5--555-2---22---2222--2--2--22-------2-2-----0-0-0--|
C#||--5--5--555-2---22---2222--------------------------------|



Bridge
Guitar 1 (Left):
D#||-------------------------------------------------------------------|
A#||-------------------------------------------------------------------|
F#||-------------------------------------------------------------------|
C#||-------------------------------------------------------------------|
G#||--5-5-5-5-5-5-5-5-5-5-5-5-5-5-5-5-0-0-0-0-0-0-0-0-0-0-0-0-0-0-0-0--|
C#||-------------------------------------------------------------------|
      . . . . . . . . . . . . . . . . . . . . . . . . . . . . . . . .

D#||-------------------------------------------------------------------|
A#||-------------------------------------------------------------------|
F#||-------------------------------------------------------------------|
C#||-------------------------------------------------------------------| x2
G#||--2-2-2-2-2-2-2-2-2-2-2-2-2-2-2-2-2-2-2-2-2-2-2-2-2-2-2-2-2-2-2-2--|
C#||-------------------------------------------------------------------|
      . . . . . . . . . . . . . . . . . . . . . . . . . . . . . . . .


Guitar 2 (Right):
D#||-------------------------------------------------------------------|
A#||-------------------------------------------------------------------|
F#||--------------------------------------------------6-6-6-6-6-6-6-6--|
C#||----------------------------------4-4-4-4-4-4-4-4------------------|
G#||--5-5-5-5-5-5-5-5-5-5-5-5-5-5-5-5----------------------------------|
C#||-------------------------------------------------------------------|
      . . . . . . . . . . . . . . . . . . . . . . . . . . . . . . . .

D#||-------------------------------------------------------------------|
A#||-------------------------------------------------------------------|
F#||--7-7-7-7-7-7-7-7-7-7-7-7-7-7-7-7-----------------6-6-6-6-6-6-6-6--|
C#||----------------------------------4-4-4-4-4-4-4-4------------------| x2
G#||-------------------------------------------------------------------|
C#||-------------------------------------------------------------------|
      . . . . . . . . . . . . . . . . . . . . . . . . . . . . . . . .



Solo
Guitar 1:
D#||--(99999\/)--9b10r9-7---------------7------------|
A#||----------------------10\---/7-10-----7---7\5----|
F#||----------------------------------------------7--|
C#||-------------------------------------------------|
G#||-------------------------------------------------|
C#||-------------------------------------------------|


D#||--9b10r9-7---------------7---7-7-7-------|
A#||-----------10\---/7-10-------------------|
F#||-----------------------------------9\-\--|
C#||-----------------------------------------|
G#||-----------------------------------------|
C#||-----------------------------------------|


D#||------------------------------------------------10-10-10-10------9999-----------|
A#||---------------------------5-5-5-7b8r7-5-5-7\---------------7777------5b66r555--|
F#||-----------------6-6-6-7-7------------------------------------------------------|
C#||-----------4-4-4----------------------------------------------------------------|
G#||--/5-5-7-7----------------------------------------------------------------------|
C#||--------------------------------------------------------------------------------|


Guitar 2:
D#||------------------------------------------------|--------------------------------------|
A#||------------------------------------------------|--------------------------------------|
F#||-------------------------4--4--4--42--22--2--2--|-------------------------4--4--4--44--|
C#||--5--5--5--52--22--2--2--4--4--4--42--22--2--2--|--5--5--5--52--22--2--2--4--4--4--44--|
G#||--5--5--5--52--22--2--2--2--2--2--20--00--0--0--|--5--5--5--52--22--2--2--2--2--2--22--|
C#||--5--5--5--52--22--2--2-------------------------|--5--5--5--52--22--2--2---------------|


D#||--------|
A#||--------|
F#||--------|
C#||--//\\--|
G#||--//\\--|
C#||--//\\--|



Chorus
Guitar 1:
D#||------------------------------------------------5-5-5-5------------|
A#||--7-7-----------7-7---------------7-7-------------------5-5-5-5-5--|
F#||------7-7-----------7-7---------------7-7--------------------------|
C#||----------7-7-7---------7-7-7-7-7---------7-7-7--------------------|
G#||-------------------------------------------------------------------|
C#||-------------------------------------------------------------------|


D#||------------------------------------------------5-5---------------------|
A#||--7-7-----------7-7---------------7-7----------------5-5\--(5-5-5-5-7)--|
F#||------7-7-----------7-7---------------7-7-------------------------------|
C#||----------7-7-7---------7-7-7-7-7---------7-7-7-------------------------|
G#||------------------------------------------------------------------------|
C#||------------------------------------------------------------------------|


Guitar 2:
D#||----------------------------------------------------|
A#||----------------------------------------------------|
F#||---------------------------4--4--444-2---22---2222--|
C#||--5--5--555-2---22---2222--4--4--444-2---22---2222--|
G#||--5--5--555-2---22---2222--2--2--222-0---00---0000--|
C#||--5--5--555-2---22---2222---------------------------|


D#||-------------------------------------------------|
A#||-------------------------------------------------|
F#||---------------------------4--4--44--------------|
C#||--5--5--555-2---22---2222--4--4--44---4-4-----4--|
G#||--5--5--555-2---22---2222--2--2--22-------2-2----|
C#||--5--5--555-2---22---2222------------------------|



Guitar 1:
D#||------------------------------------------------5-5-5-5------------|
A#||--7-7-----------7-7---------------7-7-------------------5-5-5-5-5--|
F#||------7-7-----------7-7---------------7-7--------------------------|
C#||----------7-7-7---------7-7-7-7-7---------7-7-7--------------------|
G#||-------------------------------------------------------------------|
C#||-------------------------------------------------------------------|


D#||------------------------------------------------5-5--------------------|
A#||--7-7-----------7-7---------------7-7----------------5-5\---5-5-5-5-7--|
F#||------7-7-----------7-7---------------7-7------------------------------|
C#||----------7-7-7---------7-7-7-7-7---------7-7-7------------------------|
G#||-----------------------------------------------------------------------|
C#||-----------------------------------------------------------------------|


Guitar 2:
D#||----------------------------------------------------|
A#||----------------------------------------------------|
F#||---------------------------4--4--444-2---22---2222--|
C#||--5--5--555-2---22---2222--4--4--444-2---22---2222--|
G#||--5--5--555-2---22---2222--2--2--222-0---00---0000--|
C#||--5--5--555-2---22---2222---------------------------|


D#||---------------------------------------------------------|
A#||---------------------------------------------------------|
F#||---------------------------4--4--44----------------------|
C#||--5--5--555-2---22---2222--4--4--44---4-4-----4-4--------|
G#||--5--5--555-2---22---2222--2--2--22-------2-2-----0-0-0--|
C#||--5--5--555-2---22---2222--------------------------------|



Outro
Guitar 1:
D#||------------------------------------------------5-5-5-5------------|
A#||--7-7-----------7-7---------------7-7-------------------5-5-5-5-5--|
F#||------7-7-----------7-7---------------7-7--------------------------|
C#||----------7-7-7---------7-7-7-7-7---------7-7-7--------------------|
G#||-------------------------------------------------------------------|
C#||-------------------------------------------------------------------|


D#||------------------------------------------------5-5-----------------|
A#||--7-7-----------7-7---------------7-7----------------5-5-5-5-7-7-7--|
F#||------7-7-----------7-7---------------7-7---------------------------|
C#||----------7-7-7---------7-7-7-7-7---------7-7-7---------------------|
G#||--------------------------------------------------------------------|
C#||--------------------------------------------------------------------|


Guitar 2:
D#||----------------------------------------------------|
A#||----------------------------------------------------|
F#||---------------------------4--4--444-2---22---2222--|
C#||--5--5--555-2---22---2222--4--4--444-2---22---2222--|
G#||--5--5--555-2---22---2222--2--2--222-0---00---0000--|
C#||--5--5--555-2---22---2222---------------------------|


D#||---------------------------------------------------------|
A#||---------------------------------------------------------|
F#||---------------------------4--4--44----------------------|
C#||--5--5--555-2---22---2222--4--4--44---4-4-----4-4--------|
G#||--5--5--555-2---22---2222--2--2--22-------2-2-----0-0-0--|
C#||--5--5--555-2---22---2222--------------------------------|


Guitar 1:
D#||-------|
A#||--7b~--|
F#||-------|
C#||-------|
G#||-------|
C#||-------|


Guitar 2:
D#||------|
A#||------|
F#||------|
C#||--5~--|
G#||--5~--|
C#||--5~--|





Tablature Legend
----------------
 h   hammer-on
 p   pull-off
 b   bend
 pb  pre-bend
 r   release bend
 ~   hold / vibrato
 .   palm mute
 /   slide up
 \   slide down
 *   pinch harmonic
 '   natural harmonic
 x   mute note
 T   tap
Добавлено: 02.06.2014
Другие материалы по этой песне:
  • Аккорды и текст

Страница создана 02.06.2014
http://primanota.ru/armor-for-sleep/well-own-world-chords.htm
Привет, Гость.
Предлагаем пройти революционный курс по гитаре.
Подарок от PrimaNota.Ru, забирай!