PrimaNota.ru - самый крупный в мире бесплатный архив песенных текстов, аккордов, табулатур и нот


Armor For Sleep - The Way Out Is Broken (album) - таба, видео

Регистрация Запомнить меня
Войти через:  Facebook Google Twitter Vk Yandex Mail.ru

Armor For Sleep - The Way Out Is Broken (album) - таба, видео

Печатать
Просмотров: 103
Уроки эстрадного вокала в Санкт-Петербурге
Tabbed by: Joshua Garcia (joshuag523@aol.com)

Tabs for the EP: The Way Out Is Broken by Armor For Sleep
Please rate and let me know if you have any corrections. Thank you.


*To skip to a certain song, hold Ctrl + F, type T followed by the track 
number in the box and click Next.*


Tracklist:

T01.  This Abyss
T02.  Vanished
T03.  We'll Own The World
T04.  Know What You Have
T05.  The Way Out Is Broken




____________________________________________________________________________________________________

                                         T01.   THIS ABYSS
____________________________________________________________________________________________________





Tuning: Drop C# (C# G# C# F# A# D#)


Intro
Guitar 1:
D#||------------------------------------|
A#||------------------------------------|
F#||------------------------------------|
C#||------------------------------------| x2
G#||------------------------------------|
C#||--9/12\9-0-7-0-7-0-7\5-0-5-0-5\4-0--|


Guitar 1/2:
D#||------------------------------------|
A#||------------------------------------|
F#||------------------------------------|
C#||------------------------------------| x4
G#||------------------------------------|
C#||--9/12\9-0-7-0-7-0-7\5-0-5-0-5\4-0--|



Pre-Chorus
Guitar 1/2:
D#||----------------------------------------------------------------------------------------|
A#||----------------------------------------------------------------------------------------|
F#||----------------------------------------------------------------------------------------|
C#||---------------------------------------4b-4b-4b-4b-4b-4b-4b-4b-4b-4b-4b-4b-4b-4b-4b-4b--|
G#||----------------------------------------------------------------------------------------|
C#||--14\--4-4-4-4-4-4-4-4-5-5-5-5-5-5-5-5--------------------------------------------------|


D#||---------------------------------------------------------------|
A#||---------------------------------------------------------------|
F#||----------------------------------4-4-4-4-4-4-4-4-4-4-4-4-4-4--|
C#||----------------------------------4-4-4-4-4-4-4-4-4-4-4-4-4-4--|
G#||---------------------------------------------------------------|
C#||--4-4-4-4-4-4-4-4-5-5-5-5-5-5-5-5------------------------------|



Chorus
Guitar 1:
D#||-------------------------------------------------------------------|
A#||-------------------------------------------------------------------|
F#||--4-4-4-4-4-4-4-4-----------------------------------------3-3-3-3--|
C#||--4-4-4-4-4-4-4-4-------------0---0-0-0-0-0-0-0-0-0-0-0-0-x-x-x-x--|
G#||--2-2-2-2-2-2-2-2-------------0---0-0-0-0-0-0-0-0-0-0-0-0-1-1-1-1--|
C#||------------------4---4-5---5-0---0-0-0-0-0-0-0-0-0-0-0-0----------|


D#||-------------------------------------------------------------------|
A#||-------------------------------------------------------------------|
F#||--4-4-4-4-4-4-4-4-7-7-7-7-7-7-7-7-3-3-3-3-3-3-3-3-3-3-3-3----------|
C#||--x-x-x-x-x-x-x-x-x-x-x-x-x-x-x-x-x-x-x-x-x-x-x-x-x-x-x-x-x-x-x-x--| x2
G#||--2-2-2-2-2-2-2-2-5-5-5-5-5-5-5-5-1-1-1-1-1-1-1-1-1-1-1-1-x-x-x-x--|
C#||----------------------------------------------------------x-x-x-x--|


Guitar 2:
D#||--10-10-10-9-9-9-----10-10-10-9-9-9--------------------------------------|
A#||-----------------7-7----------------7~--7-7-7-7-7-7-7-7-7-7-7------------|
F#||--------------------------------------------------------------9-9-9-9-9--|
C#||-------------------------------------------------------------------------|
G#||-------------------------------------------------------------------------|
C#||-------------------------------------------------------------------------|


D#||--10-10-10-9-9-9-----10-10-10-9-9-9--------------------------------------|
A#||-----------------7-7----------------7~--7-7-7-7-7-7-7-7-7-7-7-7----------|
F#||-------------------------------------------------------------------------|
C#||----------------------------------------------------------------x-x-x-x--| x2
G#||----------------------------------------------------------------x-x-x-x--|
C#||----------------------------------------------------------------x-x-x-x--|



Pre-Chorus
Guitar 1/2:
D#||----------------------------------------------------------------------------------------|
A#||----------------------------------------------------------------------------------------|
F#||---------------------------------------4--4--4--4--4--4--4--4--4--4--4--4--4--4--4--4---|
C#||---------------------------------------4b-4b-4b-4b-4b-4b-4b-4b-4b-4b-4b-4b-4b-4b-4b-4b--|
G#||----------------------------------------------------------------------------------------|
C#||--14\--4-4-4-4-4-4-4-4-5-5-5-5-5-5-5-5--------------------------------------------------|


D#||--------------------------------------------------------------------------|
A#||--------------------------------------------------------------------------|
F#||--------------------------------------------------------------------------|
C#||----------------------------------4b~--4b~--4b~--4b~--4b~--4b~--4b~--4b~--|
G#||--------------------------------------------------------------------------|
C#||--4-4-4-4-4-4-4-4-5-5-5-5-5-5-5-5-----------------------------------------|



Chorus
Guitar 1:
D#||-------------------------------------------------------------------|
A#||-------------------------------------------------------------------|
F#||--4-4-4-4-4-4-4-4-----------------------------------------3-3-3-3--|
C#||--4-4-4-4-4-4-4-4-------------0---0-0-0-0-0-0-0-0-0-0-0-0-x-x-x-x--|
G#||--2-2-2-2-2-2-2-2-------------0---0-0-0-0-0-0-0-0-0-0-0-0-1-1-1-1--|
C#||------------------4---4-5---5-0---0-0-0-0-0-0-0-0-0-0-0-0----------|


D#||-------------------------------------------------------------------|
A#||-------------------------------------------------------------------|
F#||--4-4-4-4-4-4-4-4-7-7-7-7-7-7-7-7-3-3-3-3-3-3-3-3-3-3-3-3----------|
C#||--x-x-x-x-x-x-x-x-x-x-x-x-x-x-x-x-x-x-x-x-x-x-x-x-x-x-x-x-x-x-x-x--| x2
G#||--2-2-2-2-2-2-2-2-5-5-5-5-5-5-5-5-1-1-1-1-1-1-1-1-1-1-1-1-x-x-x-x--|
C#||----------------------------------------------------------x-x-x-x--|


Guitar 2:
D#||--10-10-10-9-9-9-----10-10-10-9-9-9--------------------------------------|
A#||-----------------7-7----------------7~--7-7-7-7-7-7-7-7-7-7-7------------|
F#||--------------------------------------------------------------9-9-9-9-9--|
C#||-------------------------------------------------------------------------|
G#||-------------------------------------------------------------------------|
C#||-------------------------------------------------------------------------|


D#||--10-10-10-9-9-9-----10-10-10-9-9-9--------------------------------------|
A#||-----------------7-7----------------7~--7-7-7-7-7-7-7-7-7-7-7-7----------|
F#||-------------------------------------------------------------------------|
C#||----------------------------------------------------------------x-x-x-x--| x2
G#||----------------------------------------------------------------x-x-x-x--|
C#||----------------------------------------------------------------x-x-x-x--|



Bridge
Guitar 1/2:
D#||------------------------------------|
A#||------------------------------------|
F#||------------------------------------|
C#||------------------------------------| x7
G#||------------------------------------|
C#||--9/12\9-0-7-0-7-0-7\5-0-5-0-5\4-0--|


D#||--------------------|
A#||--------------------|
F#||--------------------|
C#||--------------------|
G#||--------------------|
C#||--9/12\9-0-7-0-7-0--|



Chorus
Guitar 1:
D#||-------------------------------------------------------------------|
A#||-------------------------------------------------------------------|
F#||--4-4-4-4-4-4-4-4-----------------------------------------3-3-3-3--|
C#||--4-4-4-4-4-4-4-4-------------0---0-0-0-0-0-0-0-0-0-0-0-0-x-x-x-x--|
G#||--2-2-2-2-2-2-2-2-------------0---0-0-0-0-0-0-0-0-0-0-0-0-1-1-1-1--|
C#||------------------4---4-5---5-0---0-0-0-0-0-0-0-0-0-0-0-0----------|


D#||-------------------------------------------------------------------|
A#||-------------------------------------------------------------------|
F#||--4-4-4-4-4-4-4-4-7-7-7-7-7-7-7-7-3-3-3-3-3-3-3-3-3-3-3-3----------|
C#||--x-x-x-x-x-x-x-x-x-x-x-x-x-x-x-x-x-x-x-x-x-x-x-x-x-x-x-x-x-x-x-x--| x2
G#||--2-2-2-2-2-2-2-2-5-5-5-5-5-5-5-5-1-1-1-1-1-1-1-1-1-1-1-1-x-x-x-x--|
C#||----------------------------------------------------------x-x-x-x--|


Guitar 2:
D#||--10-10-10-9-9-9-----10-10-10-9-9-9--------------------------------------|
A#||-----------------7-7----------------7~--7-7-7-7-7-7-7-7-7-7-7------------|
F#||--------------------------------------------------------------9-9-9-9-9--|
C#||-------------------------------------------------------------------------|
G#||-------------------------------------------------------------------------|
C#||-------------------------------------------------------------------------|


D#||--10-10-10-9-9-9-----10-10-10-9-9-9--------------------------------------|
A#||-----------------7-7----------------7~--7-7-7-7-7-7-7-7-7-7-7-7----------|
F#||-------------------------------------------------------------------------|
C#||----------------------------------------------------------------x-x-x-x--| x2
G#||----------------------------------------------------------------x-x-x-x--|
C#||----------------------------------------------------------------x-x-x-x--|



Guitar 1:
D#||-------------------------------------------------------------------|
A#||-------------------------------------------------------------------|
F#||--4-4-4-4-4-4-4-4-----------------------------------------3-3-3-3--|
C#||--4-4-4-4-4-4-4-4-------------0---0-0-0-0-0-0-0-0-0-0-0-0-x-x-x-x--|
G#||--2-2-2-2-2-2-2-2-------------0---0-0-0-0-0-0-0-0-0-0-0-0-1-1-1-1--|
C#||------------------4---4-5---5-0---0-0-0-0-0-0-0-0-0-0-0-0----------|


D#||-------------------------------------------------------------------|
A#||-------------------------------------------------------------------|
F#||--4-4-4-4-4-4-4-4-7-7-7-7-7-7-7-7-3-3-3-3-3-3-3-3-3-3-3-3----------|
C#||--x-x-x-x-x-x-x-x-x-x-x-x-x-x-x-x-x-x-x-x-x-x-x-x-x-x-x-x-x-x-x-x--| x2
G#||--2-2-2-2-2-2-2-2-5-5-5-5-5-5-5-5-1-1-1-1-1-1-1-1-1-1-1-1-x-x-x-x--|
C#||----------------------------------------------------------x-x-x-x--|


Guitar 2:
D#||--10-10-10-9-9-9-----10-10-10-9-9-9--------------------------------------|
A#||-----------------7-7----------------7~--7-7-7-7-7-7-7-7-7-7-7------------|
F#||--------------------------------------------------------------9-9-9-9-9--|
C#||-------------------------------------------------------------------------|
G#||-------------------------------------------------------------------------|
C#||-------------------------------------------------------------------------|


D#||--10-10-10-9-9-9-----10-10-10-9-9-9--------------------------------------|
A#||-----------------7-7----------------7~--7-7-7-7-7-7-7-7-7-7-7-7----------|
F#||-------------------------------------------------------------------------|
C#||----------------------------------------------------------------x-x-x-x--| x2
G#||----------------------------------------------------------------x-x-x-x--|
C#||----------------------------------------------------------------x-x-x-x--|


Guitar 3 (Dub):
D#||------------------------------------------------------------------------------------|
A#||------------------------------------------------------------------------------------|
F#||--14-14-14-14-14-14-14-14-9-9-9-10-10-10-10-10-10-10-10-10-10-10-10-10-10-10-10-10--|
C#||--x--x--x--x--x--x--x--x--x-x-x-x--x--x--x--x--x--x--x--x--x--x--x--x--x--x--x--x---|
G#||--12-12-12-12-12-12-12-12-7-7-7-9--9--9--9--9--9--9--9--9--9--9--9--9--9--9--9--9---|
C#||------------------------------------------------------------------------------------|


D#||---------------------------------------------------------------------------|
A#||---------------------------------------------------------------------------|
F#||--7-7-7-7-6-6-6-6-6-6-6-6-9-9-9-9-9-9-9-9-3-3-3-4-4-4-6-6-6-7-7-7----------|
C#||--x-x-x-x-x-x-x-x-x-x-x-x-x-x-x-x-x-x-x-x-x-x-x-x-x-x-x-x-x-x-x-x-x-x-x-x--| x2
G#||--5-5-5-5-4-4-4-4-4-4-4-4-7-7-7-7-7-7-7-7-1-1-1-2-2-2-4-4-4-5-5-5-x-x-x-x--|
C#||------------------------------------------------------------------x-x-x-x--|



Outro
Guitar 1:
D#||------------------------------------|
A#||------------------------------------|
F#||------------------------------------|
C#||------------------------------------| x8
G#||------------------------------------|
C#||--9/12\9-0-7-0-7-0-7\5-0-5-0-5\4-0--|


Guitar 2 (Tremlo pick):
D#||--10-10-10-14-14-14-9-9-9-12-12-12-12-12-12-12-12--|
A#||---------------------------------------------------|
F#||---------------------------------------------------|
C#||---------------------------------------------------|
G#||---------------------------------------------------|
C#||---------------------------------------------------|


D#||--10-10-10-14-14-14-9-9-9-12-12-12-12-12-12/14-14-14--|
A#||------------------------------------------------------|
F#||------------------------------------------------------|
C#||------------------------------------------------------| x4
G#||------------------------------------------------------|
C#||------------------------------------------------------|





____________________________________________________________________________________________________

                                           T02.   VANISHED
____________________________________________________________________________________________________





Tuning: Drop D (D A D G B E)


Intro
Guitar 1:
E||---------------------------------------------------------------|
B||---------------------------------------------------------------|
G||---------------------------------------------------------------|
D||--4-4-4-4-4-4-4-4-4-4-4-2-2-2-2--------------------------------|
A||--2-2-2-2-2-2-2-2-0-0-0-0-0-0-0-5-2-2-2-2-2-2-2-0-9-9---7---5--|
D||--------------------------------5-2-2-2-2-2-2-2-0-5-5---5---5--|



Pre-Verse
Guitar 1:
E||-----------------------------------|-----------------------------------|
B||-----------------------------------|-----------------------------------|
G||--11-12-11-9-11~---14-9~---14-11~--|--11-12-11-9-11~---14-9~---14-11~--|
D||--x--x--x--x-x-----x--x----x--x----|--x--x--x--x-x-----x--x----x--x----|
A||--9--10-9--7-9~----12-7~---12-9~---|--9--10-9--7-9~----12-7~---12-9~---|
D||-----------------------------------|-----------------------------------|


E||-----------------------------------|---------------------------------------|
B||-----------------------------------|---------------------------------------|
G||--11-12-11-9-11~---14-9~---14-11~--|--7-7-7-9-9-9-11-11-11-11-11-9--7-7-7--|
D||--x--x--x--x-x-----x--x----x--x----|--x-x-x-x-x-x-x--x--x--x--x--x--x-x-x--|
A||--9--10-9--7-9~----12-7~---12-9~---|--5-5-5-7-7-7-9--9--9--9--9--7--5-5-5--|
D||-----------------------------------|---------------------------------------|


Guitar 2:
E||-------------------------------------------------------------------|
B||-------------------------------------------------------------------|
G||-------------------------------------------------------------------|
D||--9-9-9-9-9-9-9-9-0-0-0-0-0-0-0-0-2-2-2-2-2-2-2-0------------------|
A||--9-9-9-9-9-9-9-9-0-0-0-0-0-0-0-0-2-2-2-2-2-2-2-0-9-9-9-7-7-5-5-5--|
D||--9-9-9-9-9-9-9-9-0-0-0-0-0-0-0-0-2-2-2-2-2-2-2-0-5-5-5-5-5-5-5-5--|



Verse
Guitar 1/2:
E||-------------------------------------------------------------------|
B||-------------------------------------------------------------------|
G||-------------------------------------------------------------------|
D||--4-4-4-4-4-4-4-4-4-4-4-2-2-2-2------------------------------------| x2
A||--2-2-2-2-2-2-2-2-0-0-0-0-0-0-0-5-2-2-2-2-2-2-2-0-9-9-9-7-7-5-5-5--|
D||--------------------------------5-2-2-2-2-2-2-2-0-5-5-5-5-5-5-5-5--|
     . . . . . . . . . . . . . . .   . . . . . . . . . . . . . . . .


Guitar 1:
E||------------------------------|------------------------------|
B||--7h8p7---7~---10------10-7~--|--7h8p7---7~---10------10-7~--|
G||--------9---------7~----------|--------9---------7~----------|
D||------------------------------|------------------------------|
A||------------------------------|------------------------------|
D||------------------------------|------------------------------|


E||------------------------------|------------------------------|
B||--7h8p7---7~---10------10-7~--|--7h8p7---7~---10------10-7~--|
G||--------9---------7~----------|--------9---------7~----------|
D||------------------------------|------------------------------|
A||------------------------------|------------------------------|
D||------------------------------|------------------------------|


Guitar 2:
E||-------------------------------------------------------------------|
B||-------------------------------------------------------------------|
G||-------------------------------------------------------------------|
D||--4-4-4-4-4-4-4-4-4-4-4-2-2-2-2------------------------------------|
A||--2-2-2-2-2-2-2-2-0-0-0-0-0-0-0-5-2-2-2-2-2-2-2-0-9-9-9-7-7-5-5-5--|
D||--------------------------------5-2-2-2-2-2-2-2-0-5-5-5-5-5-5-5-5--|
     . . . . . . . . . . . . . . .   . . . . . . . . . . . . . . . .


E||-------------------------------------------------------------------|
B||-------------------------------------------------------------------|
G||-------------------------------------------------------------------|
D||--4-4-4-4-4-4-4-4-4-4-4-2-2-2-2------------------------------------|
A||--2-2-2-2-2-2-2-2-0-0-0-0-0-0-055-2-2-2-2-2-2-2-0-9-9-9-7-7-5-5-5--|
D||-------------------------------55-2-2-2-2-2-2-2-0-5-5-5-5-5-5-5-5--|
     . . . . . . . . . . . . . . .   . . . . . . . . . . . . . . . .



Pre-Chorus
Guitar 1:
E||---------------------------------------|---------------------------------------|
B||--12-12-0-0-10-10-0-0-8-8-0-7-7-0-0-0--|--12-12-0-0-10-10-0-0-8-8-0-7-7-0-0-0--|
G||---------------------------------------|---------------------------------------|
D||---------------------------------------|---------------------------------------|
A||---------------------------------------|---------------------------------------|
D||---------------------------------------|---------------------------------------|
           . .       . .     .     . . .           . .       . .     .     . . .

E||-------------------------------------|
B||--12-12-0-0-10-10-0-0-8-8-0-7-7-0-0--|
G||-------------------------------------|
D||-------------------------------------|
A||-------------------------------------|
D||-------------------------------------|
           . .       . .     .

Guitar 2:
E||---------------------------------|---------------------------------|
B||---------------------------------|---------------------------------|
G||--7-7-7-x-7-7-7-x-7-7-7-7-7-7-7--|--7-7-7-x-7-7-7-x-7-7-7-7-7-7-7--|
D||--5-5-5-x-5-5-5-x-5-5-5-5-5-5-5--|--4-4-4-x-4-4-4-x-4-4-4-4-4-4-4--|
A||---------------------------------|---------------------------------|
E||---------------------------------|---------------------------------|


E||---------------------------------|
B||---------------------------------|
G||--7-7-7-x-7-7-7-x-7-7-7-7-7-7-7--|
D||--5-5-5-x-5-5-5-x-5-5-5-5-5-5-5--|
A||---------------------------------|
E||---------------------------------|


Guitar 1:
E||---------------------------------------|
B||--12-12-0-0-10-10-0-0-8-8-0-0-7-7-0-0--|
G||---------------------------------------|
D||---------------------------------------|
A||---------------------------------------|
D||---------------------------------------|


Guitar 2:
E||-------------------------|
B||-------------------------|
G||--7~------------------6--|
D||--7~------------------7--|
A||--5~------------------5--|
D||-------------------------|



Chorus
Guitar 1:
E||---------------------------------------------------|
B||--10-10-10-10-10-10-10-10-10-10-10-10-10-10-10-10--|
G||--x--x--x--x--x--x--x--x--x--x--x--x--x--x--x--x---|
D||--7--7--7--7--7--7--7--7--7--7--7--7--7--7--7--7---|
A||---------------------------------------------------|
D||---------------------------------------------------|


E||---------------------------------------------------|
B||--12-12-12-12-12-12-12-12-12-12-12-12-12-12-12-12--|
G||--x--x--x--x--x--x--x--x--x--x--x--x--x--x--x--x---|
D||--9--9--9--9--9--9--9--9--9--9--9--9--9--9--9--9---|
A||---------------------------------------------------|
D||---------------------------------------------------|


E||---------------------------------------------------|
B||--15-15-15-15-15-15-15-15-15-15-15-15-15-15-15-15--|
G||--x--x--x--x--x--x--x--x--x--x--x--x--x--x--x--x---|
D||--12-12-12-12-12-12-12-12-12-12-12-12-12-12-12-12--|
A||---------------------------------------------------|
D||---------------------------------------------------|


E||---------------------------------------------------|
B||--14-14-14-14-14-14-14-14-14-14-14-14-14-14-14-14--|
G||--x--x--x--x--x--x--x--x--x--x--x--x--x--x--x--x---|
D||--11-11-11-11-11-11-11-11-11-11-11-11-11-11-11-11--| x2
A||---------------------------------------------------|
D||---------------------------------------------------|


Guitar 2:
E||------------------------------------------------|
B||------------------------------------------------|
G||------------------------------------------------|
D||--2--2--2--22--22--2--2--5--5--5--55--55--5--5--|
A||--2--2--2--22--22--2--2--5--5--5--55--55--5--5--|
D||--2--2--2--22--22--2--2--5--5--5--55--55--5--5--|


E||------------------------------------------------|
B||------------------------------------------------|
G||--7--7--7--77--77--7--7-------------------------|
D||--7--7--7--77--77--7--7--7--7--7--77--77--7--7--|
A||--5--5--5--55--55--5--5--7--7--7--77--77--7--7--|
D||-------------------------7--7--7--77--77--7--7--|


E||------------------------------------------------|
B||------------------------------------------------|
G||------------------------------------------------|
D||--2--2--2--22--22--2--2--5--5--5--55--55--5--5--|
A||--2--2--2--22--22--2--2--5--5--5--55--55--5--5--|
D||--2--2--2--22--22--2--2--5--5--5--55--55--5--5--|


E||----------------------------------------------|
B||----------------------------------------------|
G||--7--7--7--77--77--7--7-----------------------|
D||--7--7--7--77--77--7--7--7--7--7--7777777777--|
A||--5--5--5--55--55--5--5--7--7--7--7777777777--|
D||-------------------------7--7--7--7777777777--|



Pre-Verse
Guitar 1:
E||-----------------------------------|-----------------------------------|
B||-----------------------------------|-----------------------------------|
G||--11-12-11-9-11~---14-9~---14-11~--|--11-12-11-9-11~---14-9~---14-11~--|
D||--x--x--x--x-x-----x--x----x--x----|--x--x--x--x-x-----x--x----x--x----|
A||--9--10-9--7-9~----12-7~---12-9~---|--9--10-9--7-9~----12-7~---12-9~---|
D||-----------------------------------|-----------------------------------|


E||-----------------------------------|---------------------------------------|
B||-----------------------------------|---------------------------------------|
G||--11-12-11-9-11~---14-9~---14-11~--|--7-7-7-9-9-9-11-11-11-11-11-9--7-7-7--|
D||--x--x--x--x-x-----x--x----x--x----|--x-x-x-x-x-x-x--x--x--x--x--x--x-x-x--|
A||--9--10-9--7-9~----12-7~---12-9~---|--5-5-5-7-7-7-9--9--9--9--9--7--5-5-5--|
D||-----------------------------------|---------------------------------------|


Guitar 2:
E||-------------------------------------------------------------------|
B||-------------------------------------------------------------------|
G||-------------------------------------------------------------------|
D||--9-9-9-9-9-9-9-9-0-0-0-0-0-0-0-0-2-2-2-2-2-2-2-0------------------|
A||--9-9-9-9-9-9-9-9-0-0-0-0-0-0-0-0-2-2-2-2-2-2-2-0-9-9-9-7-7-5-5-5--|
D||--9-9-9-9-9-9-9-9-0-0-0-0-0-0-0-0-2-2-2-2-2-2-2-0-5-5-5-5-5-5-5-5--|



Verse
Guitar 1/2:
E||-------------------------------------------------------------------|
B||-------------------------------------------------------------------|
G||-------------------------------------------------------------------|
D||--4-4-4-4-4-4-4-4-4-4-4-2-2-2-2------------------------------------|
A||--2-2-2-2-2-2-2-2-0-0-0-0-0-0-055-2-2-2-2-2-2-2-0-9-9-9-7-7-5-5-5--|
D||-------------------------------55-2-2-2-2-2-2-2-0-5-5-5-5-5-5-5-5--|
     . . . . . . . . . . . . . . .   . . . . . . . . . . . . . . . .


E||--------------------------------------------------------------------|
B||--------------------------------------------------------------------|
G||--------------------------------------------------------------------|
D||--44-4-4-4-4-4-4-4-4-4-4-2-2-2-2------------------------------------|
A||--22-2-2-2-2-2-2-2-0-0-0-0-0-0-055-2-2-2-2-2-2-2-0-9-9-9-7-7-5-5-5--|
D||--------------------------------55-2-2-2-2-2-2-2-0-5-5-5-5-5-5-5-5--|
     .. . . . . . . . . . . . . . .   . . . . . . . . . . . . . . . .


Pre-Chorus
Guitar 1:
E||---------------------------------------|---------------------------------------|
B||--12-12-0-0-10-10-0-0-8-8-0-7-7-0-0-0--|--12-12-0-0-10-10-0-0-8-8-0-7-7-0-0-0--|
G||---------------------------------------|---------------------------------------|
D||---------------------------------------|---------------------------------------|
A||---------------------------------------|---------------------------------------|
D||---------------------------------------|---------------------------------------|
           . .       . .     .     . . .           . .       . .     .     . . .

E||-------------------------------------|
B||--12-12-0-0-10-10-0-0-8-8-0-7-7-0-0--|
G||-------------------------------------|
D||-------------------------------------|
A||-------------------------------------|
D||-------------------------------------|
           . .       . .     .

Guitar 2:
E||---------------------------------|---------------------------------|
B||---------------------------------|---------------------------------|
G||--7-7-7-x-7-7-7-x-7-7-7-7-7-7-7--|--7-7-7-x-7-7-7-x-7-7-7-7-7-7-7--|
D||--5-5-5-x-5-5-5-x-5-5-5-5-5-5-5--|--4-4-4-x-4-4-4-x-4-4-4-4-4-4-4--|
A||---------------------------------|---------------------------------|
E||---------------------------------|---------------------------------|


E||---------------------------------|
B||---------------------------------|
G||--7-7-7-x-7-7-7-x-7-7-7-7-7-7-7--|
D||--5-5-5-x-5-5-5-x-5-5-5-5-5-5-5--|
A||---------------------------------|
E||---------------------------------|


Guitar 1:
E||---------------------------------------|
B||--12-12-0-0-10-10-0-0-8-8-0-0-7-7-0-0--|
G||---------------------------------------|
D||---------------------------------------|
A||---------------------------------------|
D||---------------------------------------|


Guitar 2:
E||-------------------------|
B||-------------------------|
G||--7~------------------6--|
D||--7~------------------7--|
A||--5~------------------5--|
D||-------------------------|



Chorus
Guitar 1:
E||---------------------------------------------------|
B||--10-10-10-10-10-10-10-10-10-10-10-10-10-10-10-10--|
G||--x--x--x--x--x--x--x--x--x--x--x--x--x--x--x--x---|
D||--7--7--7--7--7--7--7--7--7--7--7--7--7--7--7--7---|
A||---------------------------------------------------|
D||---------------------------------------------------|


E||---------------------------------------------------|
B||--12-12-12-12-12-12-12-12-12-12-12-12-12-12-12-12--|
G||--x--x--x--x--x--x--x--x--x--x--x--x--x--x--x--x---|
D||--9--9--9--9--9--9--9--9--9--9--9--9--9--9--9--9---|
A||---------------------------------------------------|
D||---------------------------------------------------|


E||---------------------------------------------------|
B||--15-15-15-15-15-15-15-15-15-15-15-15-15-15-15-15--|
G||--x--x--x--x--x--x--x--x--x--x--x--x--x--x--x--x---|
D||--12-12-12-12-12-12-12-12-12-12-12-12-12-12-12-12--|
A||---------------------------------------------------|
D||---------------------------------------------------|


E||---------------------------------------------------|
B||--14-14-14-14-14-14-14-14-14-14-14-14-14-14-14-14--|
G||--x--x--x--x--x--x--x--x--x--x--x--x--x--x--x--x---|
D||--11-11-11-11-11-11-11-11-11-11-11-11-11-11-11-11--| x2
A||---------------------------------------------------|
D||---------------------------------------------------|


Guitar 2:
E||------------------------------------------------|
B||------------------------------------------------|
G||------------------------------------------------|
D||--2--2--2--22--22--2--2--5--5--5--55--55--5--5--|
A||--2--2--2--22--22--2--2--5--5--5--55--55--5--5--|
D||--2--2--2--22--22--2--2--5--5--5--55--55--5--5--|


E||------------------------------------------------|
B||------------------------------------------------|
G||--7--7--7--77--77--7--7-------------------------|
D||--7--7--7--77--77--7--7--7--7--7--77--77--7--7--|
A||--5--5--5--55--55--5--5--7--7--7--77--77--7--7--|
D||-------------------------7--7--7--77--77--7--7--|


E||------------------------------------------------|
B||------------------------------------------------|
G||------------------------------------------------|
D||--2--2--2--22--22--2--2--5--5--5--55--55--5--5--|
A||--2--2--2--22--22--2--2--5--5--5--55--55--5--5--|
D||--2--2--2--22--22--2--2--5--5--5--55--55--5--5--|


E||----------------------------------------------|
B||----------------------------------------------|
G||--7--7--7--77--77--7--7-----------------------|
D||--7--7--7--77--77--7--7--7--7--7--7777777777--|
A||--5--5--5--55--55--5--5--7--7--7--7777777777--|
D||-------------------------7--7--7--7777777777--|



Interlude
Guitar 1:
E||-----------------------------|
B||-----------------------------|
G||-----------------------------|
D||--4-4-4-4-4-4-4-4-4-4-4-2-2--|
A||--2-2-2-2-2-2-2-2-0-0-0-0-0--|
D||-----------------------------|



Solo
Guitar 1:
E||-----------------------------------------------5-5-5-7-7-7-----|
B||---------5-5-5-7b8r7------5/7------------5-5-5-------------7~--|
G||--/7-7-7-------------7~-------7~---7-7-7-----------------------|
D||---------------------------------------------------------------|
A||---------------------------------------------------------------|
D||---------------------------------------------------------------|


E||--/10-10-10--------------------------/9-9-9---------------------------------|
B||-----------------7b8r7------7-7------------------------7-7-8-8-10-10-10-10--|
G||------------7~---------7~-------7-----------7~--7-7\------------------------|
D||----------------------------------------------------------------------------|
A||----------------------------------------------------------------------------|
D||----------------------------------------------------------------------------|


Guitar 2:
E||------------------------------------------------|
B||------------------------------------------------|
G||------------------------------------------------|
D||--2--2--2--22--22--2--2--5--5--5--55--55--5--5--|
A||--2--2--2--22--22--2--2--5--5--5--55--55--5--5--|
D||--2--2--2--22--22--2--2--5--5--5--55--55--5--5--|

E||-------------------------------------------------|
B||-------------------------------------------------|
G||--7--7--7--77--77--7--7--------------------------|
D||--7--7--7--77--77--7--7--7--7--7--7--7--7--7--7--|
A||--5--5--5--55--55--5--5--7--7--7--7--7--7--7--7--|
D||-------------------------7--7--7--7--7--7--7--7--|



Chorus
Guitar 1:
E||---------------------------------------------------------------------|
B||-----------------------------------7-7-7-7-7-7-7---------------------|
G||---7-7-7-7-7-7-7-7-7-7-7-7-7-7-9-9---------------9~---9-9-9-9-9-9-9--|
D||---------------------------------------------------------------------|
A||---------------------------------------------------------------------|
D||---------------------------------------------------------------------|


E||-----------------------------------------------------------------------|
B||--7-7-7-7-7-7-7-7---------------------------------7-7-8-8-10-10-10-10--|
G||------------------7-7-7-7-7-7-7-7-9-9-9-9-9-9-9-9----------------------|
D||-----------------------------------------------------------------------|
A||-----------------------------------------------------------------------|
D||-----------------------------------------------------------------------|


Guitar 2:
E||------------------------------------------------|
B||------------------------------------------------|
G||------------------------------------------------|
D||--2--2--2--22--22--2--2--5--5--5--55--55--5--5--|
A||--2--2--2--22--22--2--2--5--5--5--55--55--5--5--|
D||--2--2--2--22--22--2--2--5--5--5--55--55--5--5--|


E||----------------------------------------------|
B||----------------------------------------------|
G||--7--7--7--77--77--7--7-----------------------|
D||--7--7--7--77--77--7--7--7--7--7--7777777777--|
A||--5--5--5--55--55--5--5--7--7--7--7777777777--|
D||-------------------------7--7--7--7777777777--|



Guitar 1:
E||-----------------------------------------------5-5-5-7-7-7-----|
B||---------5-5-5-7b8r7------5/7------------5-5-5-------------7~--|
G||--/7-7-7-------------7~-------7~---7-7-7-----------------------|
D||---------------------------------------------------------------|
A||---------------------------------------------------------------|
D||---------------------------------------------------------------|


E||--/10-10-10--------------------------/9-9-9---------------------------------|
B||-----------------7b8r7------7-7------------------------7-7-8-8-10-10-10-10--|
G||------------7~---------7~-------7-----------7~--7-7\------------------------|
D||----------------------------------------------------------------------------|
A||----------------------------------------------------------------------------|
D||----------------------------------------------------------------------------|


Guitar 2:
E||------------------------------------------------|
B||------------------------------------------------|
G||------------------------------------------------|
D||--2--2--2--22--22--2--2--5--5--5--55--55--5--5--|
A||--2--2--2--22--22--2--2--5--5--5--55--55--5--5--|
D||--2--2--2--22--22--2--2--5--5--5--55--55--5--5--|


E||----------------------------------------------|
B||----------------------------------------------|
G||--7--7--7--77--77--7--7-----------------------|
D||--7--7--7--77--77--7--7--7--7--7--7777777777--|
A||--5--5--5--55--55--5--5--7--7--7--7777777777--|
D||-------------------------7--7--7--7777777777--|



Outro
Guitar 1:
E||-----------------------------------|-----------------------------------|
B||-----------------------------------|-----------------------------------|
G||--11-12-11-9-11~---14-9~---14-11~--|--11-12-11-9-11~---14-9~---14-11~--|
D||--x--x--x--x-x-----x--x----x--x----|--x--x--x--x-x-----x--x----x--x----|
A||--9--10-9--7-9~----12-7~---12-9~---|--9--10-9--7-9~----12-7~---12-9~---|
D||-----------------------------------|-----------------------------------|


E||-----------------------------------|------------------------------------|
B||-----------------------------------|------------------------------------|
G||--11-12-11-9-11~---14-9~---14-11~--|--7-7-7-9-9-9-11-11-11-11---9---7~--|
D||--x--x--x--x-x-----x--x----x--x----|--x-x-x-x-x-x-x--x--x--x----x---x~--|
A||--9--10-9--7-9~----12-7~---12-9~---|--5-5-5-7-7-7-9--9--9--9----7---5~--|
D||-----------------------------------|------------------------------------|


Guitar 2:
E||-------------------------------------------------------------------|
B||-------------------------------------------------------------------|
G||-------------------------------------------------------------------|
D||--9-9-9-9-9-9-9-9-0-0-0-0-0-0-0-0-2-2-2-2-2-2-2-0------------------|
A||--9-9-9-9-9-9-9-9-0-0-0-0-0-0-0-0-2-2-2-2-2-2-2-0-9-9-9-7-7-5-5-5--|
D||--9-9-9-9-9-9-9-9-0-0-0-0-0-0-0-0-2-2-2-2-2-2-2-0-5-5-5-5-5-5-5-5--|


E||----------------------------------------------------------------|
B||----------------------------------------------------------------|
G||----------------------------------------------------------------|
D||--9-9-9-9-9-9-9-9-0-0-0-0-0-0-0-0-2-2-2-2-2-2-2-0---------------|
A||--9-9-9-9-9-9-9-9-0-0-0-0-0-0-0-0-2-2-2-2-2-2-2-0-9-9---7---5~--|
D||--9-9-9-9-9-9-9-9-0-0-0-0-0-0-0-0-2-2-2-2-2-2-2-0-5-5---5---5~--|





____________________________________________________________________________________________________

                                       T03.   WE'LL OWN THE WORLD
____________________________________________________________________________________________________





Tuning: Drop C# (C# G# C# F# A# D#)


Intro
Guitar 1:
D#||-------------------------------------------------|
A#||-------------------------------------------------|
F#||--0-0-----------0-0---------------0-0------------|
C#||------4-4-----------4-4---------------4-4--------|
G#||----------5-5-5---------5-5-5-5-5---------5-5-5--|
C#||-------------------------------------------------|


Guitar 1/2:
D#||---------------------|
A#||---------------------|
F#||---------------------|
C#||--4-4-----4-4--------|
G#||------2-2-----0-0-0--|
C#||---------------------|



Pre-Verse
Guitar 1:
D#||-------------------------------------------------------------------|
A#||-------------------------------------------------------------------|
F#||--0-0-----------0-0---------------0-0------------------------------|
C#||------4-4-----------4-4---------------4-4-------4-4-----4-4--------| x2
G#||----------5-5-5---------5-5-5-5-5---------5-5-5-----2-2-----0-0-0--|
C#||-------------------------------------------------------------------|


Guitar 2:
D#||----------------------------------------------------|
A#||----------------------------------------------------|
F#||---------------------------4--4--444-2---22---2222--|
C#||--5--5--555-2---22---2222--4--4--444-2---22---2222--|
G#||--5--5--555-2---22---2222--2--2--222-0---00---0000--|
C#||--5--5--555-2---22---2222---------------------------|


D#||---------------------------------------------------------|
A#||---------------------------------------------------------|
F#||---------------------------4--4--44----------------------|
C#||--5--5--555-2---22---2222--4--4--44---4-4-----4-4--------|
G#||--5--5--555-2---22---2222--2--2--22-------2-2-----0-0-0--|
C#||--5--5--555-2---22---2222--------------------------------|



Verse
Guitar 1:
D#||------------------------------------------------------------|
A#||--10-10----10-10----5-5----5-5----7-7----7-7----7-7----7-7--|
F#||--11-11----11-11----6-6----6-6----7-7----7-7----7-7----7-7--|
C#||--12-12----12-12----7-7----7-7----9-9----9-9----9-9----9-9--| x2
G#||------------------------------------------------------------|
C#||------------------------------------------------------------|


Guitar 2:
D#||-------------------------------------------------------------------|
A#||-------------------------------------------------------------------|
F#||-------------------------------------------------------------------|
C#||-------------------------------------------------------------------| x2
G#||--5-5-5-5-5-5-5-5-0-0-0-0-0-0-0-0-2-2-2-2-2-2-2-2-2-2-2-2-2-2-2----|
C#||----------------------------------------------------------------0--|
      . . . . . . . . . . . . . . . . . . . . . . . . . . . . . . . .



Pre-Chorus
Guitar 1:
D#||------------------------------------------------|
A#||--10-10-10-10-10------5-5-5-5-5------7-7-7-7-7--|
F#||--11-11-11-11-11------6-6-6-6-6------7-7-7-7-7--|
C#||--12-12-12-12-12------7-7-7-7-7------9-9-9-9-9--|
G#||------------------------------------------------|
C#||------------------------------------------------|


D#||-----------------------------------------------------------------|
A#||--8-8-8-8-8------7-7-7-7-7------5-5-5-5-5-5-5-5-5-5-5-5----------|
F#||--7-7-7-7-7------7-7-7-7-7------7-7-7-7-7-7-7-7-7-7-7-7----------|
C#||--------------------------------------------------------x-x-x-x--|
G#||--------------------------------------------------------x-x-x-x--|
C#||--------------------------------------------------------x-x-x-x--|


Guitar 2:
D#||---------------------------------------|
A#||--3/15~-------15-15-15p14(b)------12~--|
F#||---------------------------------------|
C#||---------------------------------------|
G#||---------------------------------------|
C#||---------------------------------------|


D#||--10----(10~)-------10---------------12-14b~15r14~--|
A#||-----10~--------------------------------------------|
F#||-----------------------11~--------------------------|
C#||----------------------------------------------------|
G#||----------------------------------------------------|
C#||----------------------------------------------------|



Chorus
Guitar 1/2:
D#||----------------------------------------------------|
A#||----------------------------------------------------|
F#||---------------------------4--4--444-2---22---2222--|
C#||--5--5--555-2---22---2222--4--4--444-2---22---2222--|
G#||--5--5--555-2---22---2222--2--2--222-0---00---0000--|
C#||--5--5--555-2---22---2222---------------------------|


D#||---------------------------------------------------------|
A#||---------------------------------------------------------|
F#||---------------------------4--4--44----------------------|
C#||--5--5--555-2---22---2222--4--4--44---4-4-----4-4--------|
G#||--5--5--555-2---22---2222--2--2--22-------2-2-----0-0-0--|
C#||--5--5--555-2---22---2222--------------------------------|


Guitar 1:
D#||-------------------------------------------------------------------|
A#||-------------------------------------------------------------------|
F#||--0-0-----------0-0---------------0-0-------------------2-2-2-2-2--|
C#||------4-4-----------4-4---------------4-4-------4-4-4-4------------|
G#||----------5-5-5---------7-7-7-5-5---------5-5-5--------------------|
C#||-------------------------------------------------------------------|


D#||-------------------------------------------------------------------|
A#||-------------------------------------------------------------------|
F#||--0-0-----------0-0---------------0-0------------------------------|
C#||------4-4-----------4-4---------------4-4-------4-4-----4-4--------|
G#||----------5-5-5---------7-7-7-5-5---------5-5-5-----2-2-----0-0-0--|
C#||-------------------------------------------------------------------|


Guitar 2:
D#||----------------------------------------------------|
A#||----------------------------------------------------|
F#||---------------------------4--4--444-2---22---2222--|
C#||--5--5--555-2---22---2222--4--4--444-2---22---2222--|
G#||--5--5--555-2---22---2222--2--2--222-0---00---0000--|
C#||--5--5--555-2---22---2222---------------------------|


D#||---------------------------------------------------------|
A#||---------------------------------------------------------|
F#||---------------------------4--4--44----------------------|
C#||--5--5--555-2---22---2222--4--4--44---4-4-----4-4--------|
G#||--5--5--555-2---22---2222--2--2--22-------2-2-----0-0-0--|
C#||--5--5--555-2---22---2222--------------------------------|



Verse
Guitar 1:
D#||------------------------------------------------------------|
A#||--10-10----10-10----5-5----5-5----7-7----7-7----7-7----7-7--|
F#||--11-11----11-11----6-6----6-6----7-7----7-7----7-7----7-7--|
C#||--12-12----12-12----7-7----7-7----9-9----9-9----9-9----9-9--| x2
G#||------------------------------------------------------------|
C#||------------------------------------------------------------|


Guitar 2:
D#||-------------------------------------------------------------------|
A#||-------------------------------------------------------------------|
F#||-------------------------------------------------------------------|
C#||-------------------------------------------------------------------| x2
G#||--5-5-5-5-5-5-5-5-0-0-0-0-0-0-0-0-2-2-2-2-2-2-2-2-2-2-2-2-2-2-2----|
C#||----------------------------------------------------------------0--|
      . . . . . . . . . . . . . . . . . . . . . . . . . . . . . . . .



Pre-Chorus
Guitar 1:
D#||------------------------------------------------|
A#||--10-10-10-10-10------5-5-5-5-5------7-7-7-7-7--|
F#||--11-11-11-11-11------6-6-6-6-6------7-7-7-7-7--|
C#||--12-12-12-12-12------7-7-7-7-7------9-9-9-9-9--|
G#||------------------------------------------------|
C#||------------------------------------------------|


D#||-----------------------------------------------------------------|
A#||--8-8-8-8-8------7-7-7-7-7------5-5-5-5-5-5-5-5-5-5-5-5-5-5-5-5--|
F#||--7-7-7-7-7------7-7-7-7-7------7-7-7-7-7-7-7-7-7-7-7-7-7-7-7-7--|
C#||-----------------------------------------------------------------|
G#||-----------------------------------------------------------------|
C#||-----------------------------------------------------------------|


Guitar 2:
D#||---------------------------------------|
A#||--3/15~-------15-15-15p14(b)------12~--|
F#||---------------------------------------|
C#||---------------------------------------|
G#||---------------------------------------|
C#||---------------------------------------|


D#||--10----(10~)-------10---------------12-14b~15r14~--|
A#||-----10~--------------------------------------------|
F#||-----------------------11~--------------------------|
C#||----------------------------------------------------|
G#||----------------------------------------------------|
C#||----------------------------------------------------|



Chorus
Guitar 1/2:
D#||----------------------------------------------------|
A#||----------------------------------------------------|
F#||---------------------------4--4--444-2---22---2222--|
C#||--5--5--555-2---22---2222--4--4--444-2---22---2222--|
G#||--5--5--555-2---22---2222--2--2--222-0---00---0000--|
C#||--5--5--555-2---22---2222---------------------------|


D#||---------------------------------------------------------|
A#||---------------------------------------------------------|
F#||---------------------------4--4--44----------------------|
C#||--5--5--555-2---22---2222--4--4--44---4-4-----4-4--------|
G#||--5--5--555-2---22---2222--2--2--22-------2-2-----0-0-0--|
C#||--5--5--555-2---22---2222--------------------------------|


Guitar 1:
D#||-------------------------------------------------------------------|
A#||-------------------------------------------------------------------|
F#||--0-0-----------0-0---------------0-0-------------------2-2-2-2-2--|
C#||------4-4-----------4-4---------------4-4-------4-4-4-4------------|
G#||----------5-5-5---------7-7-7-5-5---------5-5-5--------------------|
C#||-------------------------------------------------------------------|


D#||-------------------------------------------------------------------|
A#||-------------------------------------------------------------------|
F#||--0-0-----------0-0---------------0-0------------------------------|
C#||------4-4-----------4-4---------------4-4-------4-4-----4-4--------|
G#||----------5-5-5---------7-7-7-5-5---------5-5-5-----2-2-----0-0-0--|
C#||-------------------------------------------------------------------|


Guitar 2:
D#||----------------------------------------------------|
A#||----------------------------------------------------|
F#||---------------------------4--4--444-2---22---2222--|
C#||--5--5--555-2---22---2222--4--4--444-2---22---2222--|
G#||--5--5--555-2---22---2222--2--2--222-0---00---0000--|
C#||--5--5--555-2---22---2222---------------------------|


D#||---------------------------------------------------------|
A#||---------------------------------------------------------|
F#||---------------------------4--4--44----------------------|
C#||--5--5--555-2---22---2222--4--4--44---4-4-----4-4--------|
G#||--5--5--555-2---22---2222--2--2--22-------2-2-----0-0-0--|
C#||--5--5--555-2---22---2222--------------------------------|



Bridge
Guitar 1 (Left):
D#||-------------------------------------------------------------------|
A#||-------------------------------------------------------------------|
F#||-------------------------------------------------------------------|
C#||-------------------------------------------------------------------|
G#||--5-5-5-5-5-5-5-5-5-5-5-5-5-5-5-5-0-0-0-0-0-0-0-0-0-0-0-0-0-0-0-0--|
C#||-------------------------------------------------------------------|
      . . . . . . . . . . . . . . . . . . . . . . . . . . . . . . . .

D#||-------------------------------------------------------------------|
A#||-------------------------------------------------------------------|
F#||-------------------------------------------------------------------|
C#||-------------------------------------------------------------------| x2
G#||--2-2-2-2-2-2-2-2-2-2-2-2-2-2-2-2-2-2-2-2-2-2-2-2-2-2-2-2-2-2-2-2--|
C#||-------------------------------------------------------------------|
      . . . . . . . . . . . . . . . . . . . . . . . . . . . . . . . .


Guitar 2 (Right):
D#||-------------------------------------------------------------------|
A#||-------------------------------------------------------------------|
F#||--------------------------------------------------6-6-6-6-6-6-6-6--|
C#||----------------------------------4-4-4-4-4-4-4-4------------------|
G#||--5-5-5-5-5-5-5-5-5-5-5-5-5-5-5-5----------------------------------|
C#||-------------------------------------------------------------------|
      . . . . . . . . . . . . . . . . . . . . . . . . . . . . . . . .

D#||-------------------------------------------------------------------|
A#||-------------------------------------------------------------------|
F#||--7-7-7-7-7-7-7-7-7-7-7-7-7-7-7-7-----------------6-6-6-6-6-6-6-6--|
C#||----------------------------------4-4-4-4-4-4-4-4------------------| x2
G#||-------------------------------------------------------------------|
C#||-------------------------------------------------------------------|
      . . . . . . . . . . . . . . . . . . . . . . . . . . . . . . . .



Solo
Guitar 1:
D#||--(99999\/)--9b10r9-7---------------7------------|
A#||----------------------10\---/7-10-----7---7\5----|
F#||----------------------------------------------7--|
C#||-------------------------------------------------|
G#||-------------------------------------------------|
C#||-------------------------------------------------|


D#||--9b10r9-7---------------7---7-7-7-------|
A#||-----------10\---/7-10-------------------|
F#||-----------------------------------9\-\--|
C#||-----------------------------------------|
G#||-----------------------------------------|
C#||-----------------------------------------|


D#||------------------------------------------------10-10-10-10------9999-----------|
A#||---------------------------5-5-5-7b8r7-5-5-7\---------------7777------5b66r555--|
F#||-----------------6-6-6-7-7------------------------------------------------------|
C#||-----------4-4-4----------------------------------------------------------------|
G#||--/5-5-7-7----------------------------------------------------------------------|
C#||--------------------------------------------------------------------------------|


Guitar 2:
D#||------------------------------------------------|--------------------------------------|
A#||------------------------------------------------|--------------------------------------|
F#||-------------------------4--4--4--42--22--2--2--|-------------------------4--4--4--44--|
C#||--5--5--5--52--22--2--2--4--4--4--42--22--2--2--|--5--5--5--52--22--2--2--4--4--4--44--|
G#||--5--5--5--52--22--2--2--2--2--2--20--00--0--0--|--5--5--5--52--22--2--2--2--2--2--22--|
C#||--5--5--5--52--22--2--2-------------------------|--5--5--5--52--22--2--2---------------|


D#||--------|
A#||--------|
F#||--------|
C#||--//\\--|
G#||--//\\--|
C#||--//\\--|



Chorus
Guitar 1:
D#||------------------------------------------------5-5-5-5------------|
A#||--7-7-----------7-7---------------7-7-------------------5-5-5-5-5--|
F#||------7-7-----------7-7---------------7-7--------------------------|
C#||----------7-7-7---------7-7-7-7-7---------7-7-7--------------------|
G#||-------------------------------------------------------------------|
C#||-------------------------------------------------------------------|


D#||------------------------------------------------5-5---------------------|
A#||--7-7-----------7-7---------------7-7----------------5-5\--(5-5-5-5-7)--|
F#||------7-7-----------7-7---------------7-7-------------------------------|
C#||----------7-7-7---------7-7-7-7-7---------7-7-7-------------------------|
G#||------------------------------------------------------------------------|
C#||------------------------------------------------------------------------|


Guitar 2:
D#||----------------------------------------------------|
A#||----------------------------------------------------|
F#||---------------------------4--4--444-2---22---2222--|
C#||--5--5--555-2---22---2222--4--4--444-2---22---2222--|
G#||--5--5--555-2---22---2222--2--2--222-0---00---0000--|
C#||--5--5--555-2---22---2222---------------------------|


D#||-------------------------------------------------|
A#||-------------------------------------------------|
F#||---------------------------4--4--44--------------|
C#||--5--5--555-2---22---2222--4--4--44---4-4-----4--|
G#||--5--5--555-2---22---2222--2--2--22-------2-2----|
C#||--5--5--555-2---22---2222------------------------|



Guitar 1:
D#||------------------------------------------------5-5-5-5------------|
A#||--7-7-----------7-7---------------7-7-------------------5-5-5-5-5--|
F#||------7-7-----------7-7---------------7-7--------------------------|
C#||----------7-7-7---------7-7-7-7-7---------7-7-7--------------------|
G#||-------------------------------------------------------------------|
C#||-------------------------------------------------------------------|


D#||------------------------------------------------5-5--------------------|
A#||--7-7-----------7-7---------------7-7----------------5-5\---5-5-5-5-7--|
F#||------7-7-----------7-7---------------7-7------------------------------|
C#||----------7-7-7---------7-7-7-7-7---------7-7-7------------------------|
G#||-----------------------------------------------------------------------|
C#||-----------------------------------------------------------------------|


Guitar 2:
D#||----------------------------------------------------|
A#||----------------------------------------------------|
F#||---------------------------4--4--444-2---22---2222--|
C#||--5--5--555-2---22---2222--4--4--444-2---22---2222--|
G#||--5--5--555-2---22---2222--2--2--222-0---00---0000--|
C#||--5--5--555-2---22---2222---------------------------|


D#||---------------------------------------------------------|
A#||---------------------------------------------------------|
F#||---------------------------4--4--44----------------------|
C#||--5--5--555-2---22---2222--4--4--44---4-4-----4-4--------|
G#||--5--5--555-2---22---2222--2--2--22-------2-2-----0-0-0--|
C#||--5--5--555-2---22---2222--------------------------------|



Outro
Guitar 1:
D#||------------------------------------------------5-5-5-5------------|
A#||--7-7-----------7-7---------------7-7-------------------5-5-5-5-5--|
F#||------7-7-----------7-7---------------7-7--------------------------|
C#||----------7-7-7---------7-7-7-7-7---------7-7-7--------------------|
G#||-------------------------------------------------------------------|
C#||-------------------------------------------------------------------|


D#||------------------------------------------------5-5-----------------|
A#||--7-7-----------7-7---------------7-7----------------5-5-5-5-7-7-7--|
F#||------7-7-----------7-7---------------7-7---------------------------|
C#||----------7-7-7---------7-7-7-7-7---------7-7-7---------------------|
G#||--------------------------------------------------------------------|
C#||--------------------------------------------------------------------|


Guitar 2:
D#||----------------------------------------------------|
A#||----------------------------------------------------|
F#||---------------------------4--4--444-2---22---2222--|
C#||--5--5--555-2---22---2222--4--4--444-2---22---2222--|
G#||--5--5--555-2---22---2222--2--2--222-0---00---0000--|
C#||--5--5--555-2---22---2222---------------------------|


D#||---------------------------------------------------------|
A#||---------------------------------------------------------|
F#||---------------------------4--4--44----------------------|
C#||--5--5--555-2---22---2222--4--4--44---4-4-----4-4--------|
G#||--5--5--555-2---22---2222--2--2--22-------2-2-----0-0-0--|
C#||--5--5--555-2---22---2222--------------------------------|


Guitar 1:
D#||-------|
A#||--7b~--|
F#||-------|
C#||-------|
G#||-------|
C#||-------|


Guitar 2:
D#||------|
A#||------|
F#||------|
C#||--5~--|
G#||--5~--|
C#||--5~--|






____________________________________________________________________________________________________

                                       T04. KNOW WHAT YOU HAVE
____________________________________________________________________________________________________





Intro
Guitar 1 (Dub):
E||--------------------------------------------|
B||--16---16-16---16-16---16-16---16-16b17r16--|
G||--------------------------------------------| (repeats throughout the song)
D||--------------------------------------------|
A||--------------------------------------------|
E||--------------------------------------------|



Verse
Acoustic:
E||--6-----6-----6-----6-----6-6----------|---------------------------------------|
B||--7-----7-----7-----7-----7-7----------|--7-----7-----7-----7-----7-7----------|
G||--8-----8-----8-----8-----8-8----------|--8-----8-----8-----8-----8-8----------|
D||--x-x-x-x-x-x-x-x-x-x-x-x-x-x-x-x--x2--|--8-8-8-8-8-8-8-8-8-8-8-8-8-8-8-8--x2--| x3
A||--6-6-6-6-6-6-6-6-6-6-6-6-6-6-6-6------|--7-7-7-7-7-7-7-7-7-7-7-7-7-7-7-7------|
E||---------------------------------------|---------------------------------------|


Guitar 1:
E||-----------------------------------------------------------------------------------|
B||-----------------------------12~--------7--9------------------12~--------7--9------|
G||--8~--------11~--------8--9-------------------8~--------8--9-------------------8~--|
D||-----------------------------------------------------------------------------------|
A||-----------------------------------------------------------------------------------|
E||-----------------------------------------------------------------------------------|



Pre-Chorus
Guitar 1:
E||--11---11---------------|--11---11---------------|--11---11---------------|
B||----------9---9-12~--\--|----------9---9-12~--\--|----------9---9-12~--\--|
G||------------------------|------------------------|------------------------|
D||------------------------|------------------------|------------------------|
A||------------------------|------------------------|------------------------|
E||------------------------|------------------------|------------------------|


E||--16---16-14---14---------------------------------------------|
B||------------------16---1616161616161616-16b18r16-16-16b18r16--|
G||--------------------------------------------------------------|
D||--------------------------------------------------------------|
A||--------------------------------------------------------------|
E||--------------------------------------------------------------|



Chorus
Guitar 1:
E||--16---16-14---14----------|--------------------------------16---16-14---14-----|
B||------------------16-------|--16b17r16-16----------12---12------------------16--|
G||---------------------------|--------------13-13-13------------------------------|
D||-----------------------x3--|----------------------------------------------------|
A||---------------------------|----------------------------------------------------|
E||---------------------------|----------------------------------------------------|


E||--16---16-14---14----------|--16---16-14~--\--|
B||------------------16-------|------------------|
G||---------------------------|------------------|
D||-----------------------x3--|------------------|
A||---------------------------|------------------|
E||---------------------------|------------------|


Acoustic:
E||--6666----6666----66-------------------------------------------------------------------------|
B||--7777-xx-7777-xx-77-xx--7777----7777----77--------------------------------------------------|
G||--8888-xx-8888-xx-88-xx--8888----8888----88-----8888----8888----88----8888----8888----88-----|
D||-------------------------xxxx-xx-xxxx-xx-xx-xx--9999-xx-9999-xx-99-xx-9999-xx-9999-xx-99-xx--| x2
A||-------------------------6666-xx-6666-xx-66-xx--7777-xx-7777-xx-77-xx-7777-xx-7777-xx-77-xx--|
E||---------------------------------------------------------------------------------------------|



Solo
Guitar 1:
E||---------7---7-6~--------------------------------------------------------/14---14---------|
B||----------------------/7--7h9--7----------------------------------/9---9----------14~--\--|
G||--/8---8--------------------------8~-----4--4h6--4----------------------------------------|
D||----------------------------------------------------6~-----/14\---------------------------|
A||------------------------------------------------------------------------------------------|
E||------------------------------------------------------------------------------------------|



Verse
Acoustic:
E||--6-----6-----6-----6-----6-6----------|---------------------------------------|
B||--7-----7-----7-----7-----7-7----------|--7-----7-----7-----7-----7-7----------|
G||--8-----8-----8-----8-----8-8----------|--8-----8-----8-----8-----8-8----------|
D||--x-x-x-x-x-x-x-x-x-x-x-x-x-x-x-x--x2--|--8-8-8-8-8-8-8-8-8-8-8-8-8-8-8-8--x2--| x2
A||--6-6-6-6-6-6-6-6-6-6-6-6-6-6-6-6------|--7-7-7-7-7-7-7-7-7-7-7-7-7-7-7-7------|
E||---------------------------------------|---------------------------------------|


Guitar 1:
E||-----------------------|
B||-------12-----7--9-----|
G||-8--9---------------8--|
D||-----------------------|
A||-----------------------|
E||-----------------------|



Chorus
Guitar 1:
E||--16---16-14---14----------|--------------------------------16---16-14---14-----|
B||------------------16-------|--16b17r16-16----------12---12------------------16--|
G||---------------------------|--------------13-13-13------------------------------|
D||-----------------------x3--|----------------------------------------------------| x3
A||---------------------------|----------------------------------------------------|
E||---------------------------|----------------------------------------------------|


E||--16---16-14---14----------|--16---16-14~--\--|
B||------------------16-------|------------------|
G||---------------------------|------------------|
D||-----------------------x3--|------------------|
A||---------------------------|------------------|
E||---------------------------|------------------|


Acoustic:
E||--6666----6666----66-------------------------------------------------------------------------|
B||--7777-xx-7777-xx-77-xx--7777----7777----77--------------------------------------------------|
G||--8888-xx-8888-xx-88-xx--8888----8888----88-----8888----8888----88----8888----8888----88-----|
D||-------------------------xxxx-xx-xxxx-xx-xx-xx--9999-xx-9999-xx-99-xx-9999-xx-9999-xx-99-xx--| x4
A||-------------------------6666-xx-6666-xx-66-xx--7777-xx-7777-xx-77-xx-7777-xx-7777-xx-77-xx--|
E||---------------------------------------------------------------------------------------------|



Interlude
Acoustic:
E||--6~-----------------------------------|
B||--7~---------7~------------------------|
G||--8~---------8~---------8~---------8~--|
D||-------------x----------9~---------9~--|
A||-------------6~---------7~---------7~--|
E||---------------------------------------|



Bridge
Guitar 1:
E||---------------------------------------------------------------------------------------|
B||---------------------------------------------------------------------------------------|
G||---------------------------------------------------------------------------------------|
D||--6666666666666666-8888888888888888-9999999999999999-11111111111111111111111111111111--|
A||--xxxxxxxxxxxxxxxx-xxxxxxxxxxxxxxxx-xxxxxxxxxxxxxxxx-x-x-x-x-x-x-x-x-x-x-x-x-x-x-x-x---|
E||--4444444444444444-6666666666666666-7777777777777777-9-9-9-9-9-9-9-9-9-9-9-9-9-9-9-9---|


E||--------------------------------------------------------------------------------------|
B||--------------------------------------------------------------------------------------|
G||--8888888888888888-11111111111111111111111111111111-13131313131313131313131313131313--|
D||--xxxxxxxxxxxxxxxx-x-x-x-x-x-x-x-x-x-x-x-x-x-x-x-x--x-x-x-x-x-x-x-x-x-x-x-x-x-x-x-x---|
A||--6666666666666666-9-9-9-9-9-9-9-9-9-9-9-9-9-9-9-9--11111111111111111111111111111111--|
E||--------------------------------------------------------------------------------------|


E||------------------------------------|
B||------------------------------------|
G||--15151515151515151515151515151515--|
D||--x-x-x-x-x-x-x-x-x-x-x-x-x-x-x-x---|
A||--13131313131313131313131313131313--|
E||------------------------------------|



Chorus/Outro
Guitar 1:
E||--16---16-14---14----------|--------------------------------16---16-14---14-----|
B||------------------16-------|--16b17r16-16----------12---12------------------16--|
G||---------------------------|--------------13-13-13------------------------------|
D||-----------------------x3--|----------------------------------------------------| x3
A||---------------------------|----------------------------------------------------|
E||---------------------------|----------------------------------------------------|


E||--16---16-14---14----------|--16---16-14~--\--|
B||------------------16-------|------------------|
G||---------------------------|------------------|
D||-----------------------x3--|------------------|
A||---------------------------|------------------|
E||---------------------------|------------------|


Acoustic:
E||--6666----6666----66-------------------------------------------------------------------------|
B||--7777-xx-7777-xx-77-xx--7777----7777----77--------------------------------------------------|
G||--8888-xx-8888-xx-88-xx--8888----8888----88-----8888----8888----88----8888----8888----88-----|
D||-------------------------xxxx-xx-xxxx-xx-xx-xx--9999-xx-9999-xx-99-xx-9999-xx-9999-xx-99-xx--| x4
A||-------------------------6666-xx-6666-xx-66-xx--7777-xx-7777-xx-77-xx-7777-xx-7777-xx-77-xx--|
E||---------------------------------------------------------------------------------------------|


E||--6~--|
B||--7~--|
G||--8~--|
D||------|
A||------|
E||------|





____________________________________________________________________________________________________

                                       T05.   THE WAY OUT IS BROKEN
____________________________________________________________________________________________________





Tuning: Drop D (D A D G B E)


Intro
Guitar 1:
E||-------------------------------------------------------------------|
B||-------------------------------------------------------------------|
G||--------0-0-0-0-0-0-0-0-0-0-0-0-0-------0-0-0-0-0-0-0-0-0-0-0-0-0--|
D||--5-5-5-5-5-5-5-5-5-5-5-5-5-5-5-5-5-5-5-4-4-4-4-4-4-4-4-4-4-4-4-4--| x2
A||--x-x-x---------------------------2-2-2----------------------------|
D||--2-2-2------------------------------------------------------------|



Verse
Guitar 1:
E||-------------------------------------------------------------------|
B||-------------------------------------------------------------------|
G||--------0-0-0-0-0-0-0-0-0-0-0-0-0-------0-0-0-0-0-0-0-0-0-0-0-0-0--|
D||--5-5-5-5-5-5-5-5-5-5-5-5-5-5-5-5-5-5-5-4-4-4-4-4-4-4-4-4-4-4-4-4--| x4
A||--x-x-x---------------------------2-2-2----------------------------|
D||--2-2-2------------------------------------------------------------|


Guitar 2:
E||-------------------------------------------------------------------|
B||-------------------------------------------------------------------|
G||--------0-0-0-0-0-0-0-0-0-0-0-0-0-5-5-5-0-0-0-0-0-0-0-0-0-0-0-0-0--|
D||--2-2-2-7-7-7-7-7-7-7-7-7-7-7-7-7-5-5-5-4-4-4-4-4-4-4-4-4-4-4-4-4--| x4
A||--2-2-2---------------------------2-2-2----------------------------|
D||--2-2-2------------------------------------------------------------|



Pre-Chorus
Guitar 1 (Left):
E||-------------------------------------------------------------------|
B||-------------------------------------------------------------------|
G||--7-7-7-7---------6-6-6-6---------6-6-6-6---------6-6-6-6----------|
D||--x-x-x-x-x-x-x-x-x-x-x-x-x-x-x-x-x-x-x-x-x-x-x-x-x-x-x-x-x-x-x-x--|
A||--5-5-5-5-x-x-x-x-4-4-4-4-x-x-x-x-4-4-4-4-x-x-x-x-4-4-4-4-x-x-x-x--|
D||----------x-x-x-x---------x-x-x-x---------x-x-x-x---------x-x-x-x--|


E||-------------------------------------------------------------------|
B||-------------------------------------------------------------------|
G||--7-7-7-7---------6-6-6-6---------6-6-6-6---------6-6-6-6----------|
D||--x-x-x-x-x-x-x-x-x-x-x-x-x-x-x-x-x-x-x-x-x-x-x-x-x-x-x-x---0-0-0--|
A||--5-5-5-5-x-x-x-x-4-4-4-4-x-x-x-x-4-4-4-4-x-x-x-x-4-4-4-4---0-0-0--|
D||----------x-x-x-x---------x-x-x-x---------x-x-x-x-----------0-0-0--|
                                                               . . .


Guitar 2 (Right):
E||----------------------------------------------------------------------|
B||----------------------------------------------------------------------|
G||--9-9-9-11---------7-7-7-9---------9-9-9-11---------9-9-9-11----------|
D||--x-x-x-x--x-x-x-x-x-x-x-x-x-x-x-x-x-x-x-x--x-x-x-x-x-x-x-x--x-x-x-x--|
A||--7-7-7-9--x-x-x-x-5-5-5-7-x-x-x-x-7-7-7-9--x-x-x-x-7-7-7-9--x-x-x-x--|
D||-----------x-x-x-x---------x-x-x-x----------x-x-x-x----------x-x-x-x--|


E||----------------------------------------------------------------------|
B||----------------------------------------------------------------------|
G||--9-9-9-11---------7-7-7-9---------9-9-9-11---------9-9-9-11----------|
D||--x-x-x-x--x-x-x-x-x-x-x-x-x-x-x-x-x-x-x-x--x-x-x-x-x-x-x-x----0-0-0--|
A||--7-7-7-9--x-x-x-x-5-5-5-7-x-x-x-x-7-7-7-9--x-x-x-x-7-7-7-9----0-0-0--|
D||-----------x-x-x-x---------x-x-x-x----------x-x-x-x------------0-0-0--|
                                                                  . . .



Chorus
Guitar 1:
E||-----------------------------------------|
B||-----------------------------------------|
G||--12-12---11-11-11-11---7-7-7-7-7-7-7----|
D||--x--x--0-x--x--x--x--0-x-x-x-x-x-x-x-0--| x2
A||--10-10-0-9--9--9--9--0-5-5-5-5-5-5-5-0--|
D||--------0-------------0---------------0--|


Guitar 2:
E||-------------------------------------|
B||-------------------------------------|
G||--12-12------------------------------|
D||--x--x--0-8-8-8-8-0-9-9-9-9-9-9-9-0--| x2
A||--10-10-0-9-9-9-9-0-9-9-9-9-9-9-9-0--|
D||--------0-8-8-8-8-0-9-9-9-9-9-9-9-0--|



Guitar 1:
E||---------------------------------------------|
B||---------------------------------------------|
G||--11-9-7-9-9-9-9-99-11-9-7-14-14-14-14-1414--|
D||--x--x-x-x-x-x-x-xx-x--x-x-x--x--x--x--x-x---| x2
A||--9--7-5-7-7-7-7-77-9--7-5-12-12-12-12-1212--|
D||---------------------------------------------|


Guitar 2:
E||-----------------------------------|------------------------------------|
B||-----------------------------------|------------------------------------|
G||--------6-6-6-6---7-7-7-7-7-7-7----|--------6-6-6-6---7-7-7-7-7-7-7-77--|
D||--0-0-0-x-x-x-x-0-x-x-x-x-x-x-x-0--|--0-0-0-x-x-x-x-0-x-x-x-x-x-x-x-xx--|
A||--0-0-0-4-4-4-4-0-5-5-5-5-5-5-5-0--|--0-0-0-4-4-4-4-0-5-5-5-5-5-5-5-55--|
D||--0-0-0---------0---------------0--|--0-0-0---------0-------------------|



Pre-Verse
Guitar 1:
E||-------------------------------------------------------------------|
B||-------------------------------------------------------------------|
G||--------0-0-0-0-0-0-0-0-0-0-0-0-0-------0-0-0-0-0-0-0-0-0-0-0-0-0--|
D||--5-5-5-5-5-5-5-5-5-5-5-5-5-5-5-5-5-5-5-4-4-4-4-4-4-4-4-4-4-4-4-4--| x2
A||--x-x-x---------------------------2-2-2----------------------------|
D||--2-2-2------------------------------------------------------------|



Verse
Guitar 1 (Dub):
E||--------------5~-----------------|
B||--5-7b8r7~----------8~--7b8r7----|
G||------------7-----7-----------7--|
D||---------------------------------| x4
A||---------------------------------|
D||---------------------------------|


Guitar 1:
E||-------------------------------------------------------------------|
B||-------------------------------------------------------------------|
G||--------0-0-0-0-0-0-0-0-0-0-0-0-0-------0-0-0-0-0-0-0-0-0-0-0-0-0--|
D||--5-5-5-5-5-5-5-5-5-5-5-5-5-5-5-5-5-5-5-4-4-4-4-4-4-4-4-4-4-4-4-4--| x2
A||--x-x-x---------------------------2-2-2----------------------------|
D||--2-2-2------------------------------------------------------------|


Guitar 2:
E||-------------------------------------------------------------------|
B||-------------------------------------------------------------------|
G||--------0-0-0-0-0-0-0-0-0-0-0-0-0-5-5-5-0-0-0-0-0-0-0-0-0-0-0-0-0--|
D||--2-2-2-7-7-7-7-7-7-7-7-7-7-7-7-7-5-5-5-4-4-4-4-4-4-4-4-4-4-4-4-4--| x2
A||--2-2-2---------------------------2-2-2----------------------------|
D||--2-2-2------------------------------------------------------------|



Pre-Chorus
Guitar 1 (Left):
E||-------------------------------------------------------------------|
B||-------------------------------------------------------------------|
G||--7-7-7-7---------6-6-6-6---------6-6-6-6---------6-6-6-6----------|
D||--x-x-x-x-x-x-x-x-x-x-x-x-x-x-x-x-x-x-x-x-x-x-x-x-x-x-x-x-x-x-x-x--|
A||--5-5-5-5-x-x-x-x-4-4-4-4-x-x-x-x-4-4-4-4-x-x-x-x-4-4-4-4-x-x-x-x--|
D||----------x-x-x-x---------x-x-x-x---------x-x-x-x---------x-x-x-x--|


E||-------------------------------------------------------------------|
B||-------------------------------------------------------------------|
G||--7-7-7-7---------6-6-6-6---------6-6-6-6---------6-6-6-6----------|
D||--x-x-x-x-x-x-x-x-x-x-x-x-x-x-x-x-x-x-x-x-x-x-x-x-x-x-x-x---0-0-0--|
A||--5-5-5-5-x-x-x-x-4-4-4-4-x-x-x-x-4-4-4-4-x-x-x-x-4-4-4-4---0-0-0--|
D||----------x-x-x-x---------x-x-x-x---------x-x-x-x-----------0-0-0--|
                                                               . . .


Guitar 2 (Right):
E||----------------------------------------------------------------------|
B||----------------------------------------------------------------------|
G||--9-9-9-11---------7-7-7-9---------9-9-9-11---------9-9-9-11----------|
D||--x-x-x-x--x-x-x-x-x-x-x-x-x-x-x-x-x-x-x-x--x-x-x-x-x-x-x-x--x-x-x-x--|
A||--7-7-7-9--x-x-x-x-5-5-5-7-x-x-x-x-7-7-7-9--x-x-x-x-7-7-7-9--x-x-x-x--|
D||-----------x-x-x-x---------x-x-x-x----------x-x-x-x----------x-x-x-x--|


E||----------------------------------------------------------------------|
B||----------------------------------------------------------------------|
G||--9-9-9-11---------7-7-7-9---------9-9-9-11---------9-9-9-11----------|
D||--x-x-x-x--x-x-x-x-x-x-x-x-x-x-x-x-x-x-x-x--x-x-x-x-x-x-x-x----0-0-0--|
A||--7-7-7-9--x-x-x-x-5-5-5-7-x-x-x-x-7-7-7-9--x-x-x-x-7-7-7-9----0-0-0--|
D||-----------x-x-x-x---------x-x-x-x----------x-x-x-x------------0-0-0--|
                                                                  . . .


Chorus
Guitar 1:
E||-----------------------------------------|
B||-----------------------------------------|
G||--12-12---11-11-11-11---7-7-7-7-7-7-7----|
D||--x--x--0-x--x--x--x--0-x-x-x-x-x-x-x-0--| x2
A||--10-10-0-9--9--9--9--0-5-5-5-5-5-5-5-0--|
D||--------0-------------0---------------0--|


Guitar 2:
E||-------------------------------------|
B||-------------------------------------|
G||--12-12------------------------------|
D||--x--x--0-8-8-8-8-0-9-9-9-9-9-9-9-0--| x2
A||--10-10-0-9-9-9-9-0-9-9-9-9-9-9-9-0--|
D||--------0-8-8-8-8-0-9-9-9-9-9-9-9-0--|



Guitar 1:
E||---------------------------------------------|-----------------------------------------|
B||---------------------------------------------|-----------------------------------------|
G||--11-9-7-9-9-9-9-99-11-9-7-14-14-14-14-1414--|--11-9-7-9-9-9-9-99-11-9-7-14-14-14-14\--|
D||--x--x-x-x-x-x-x-xx-x--x-x-x--x--x--x--x-x---|--x--x-x-x-x-x-x-xx-x--x-x-x--x--x--x-\--|
A||--9--7-5-7-7-7-7-77-9--7-5-12-12-12-12-1212--|--9--7-5-7-7-7-7-77-9--7-5-12-12-12-12\--|
D||---------------------------------------------|-----------------------------------------|


Guitar 2:
E||-----------------------------------|----------------------------------|
B||-----------------------------------|----------------------------------|
G||--------6-6-6-6---7-7-7-7-7-7-7----|--------6-6-6-6---7-7-7-7-7-7-7\--|
D||--0-0-0-x-x-x-x-0-x-x-x-x-x-x-x-0--|--0-0-0-x-x-x-x-0-x-x-x-x-x-x-x\--|
A||--0-0-0-4-4-4-4-0-5-5-5-5-5-5-5-0--|--0-0-0-4-4-4-4-0-5-5-5-5-5-5-5\--|
D||--0-0-0---------0---------------0--|--0-0-0---------0-----------------|



Interlude
Guitar 1:
E||--------------------------------------|--------------------------------------|
B||--------------------------------------|--------------------------------------|
G||--------------------------------------|--------------------------------------|
D||------2-----7---------12-11-9----9----|------2-----7---------12-11-9----9----|
A||----2-----5---5-----9---------12---9--|----2-----5---5-----9---------12---9--|
D||--2-----5-------5-9-------------------|--2-----5-------5-9-------------------|


Guitar 2:
E||----2~3-2~----------2~3-2~------------|----2~3-2~----------2~3-2~------------|
B||--2~--------------2~------------------|--2~--------------2~------------------|
G||--------------------------------------|--------------------------------------|
D||--------------------------------------|--------------------------------------|
A||--------------------------------------|--------------------------------------|
D||--------------------------------------|--------------------------------------|



Bridge
Guitar 1:
E||------------------------------------|-------------------------------------------|
B||------------------------------------|-------------------------------------------|
G||------------------------------------|-------------------------------------------|
D||------------------------------------|-------------------11-11-11-11-11-11-11----|
A||------------------------------------|-------------------9--9--9--9--9--9--9-----|
D||--2-2-0-5-5-5-5/-0-9-9-9-9-9-9-9-0--|--2-2-0-5-5-5-5/-0-9--9--9--9--9--9--9-00--|
                                                                               ..


Chorus
Guitar 1:
E||-----------------------------------------|
B||-----------------------------------------|
G||--12-12---11-11-11-11---7-7-7-7-7-7-7----|
D||--x--x--0-x--x--x--x--0-x-x-x-x-x-x-x-0--| x2
A||--10-10-0-9--9--9--9--0-5-5-5-5-5-5-5-0--|
D||--------0-------------0---------------0--|


Guitar 2:
E||-------------------------------------|
B||-------------------------------------|
G||--12-12------------------------------|
D||--x--x--0-8-8-8-8-0-9-9-9-9-9-9-9-0--| x2
A||--10-10-0-9-9-9-9-0-9-9-9-9-9-9-9-0--|
D||--------0-8-8-8-8-0-9-9-9-9-9-9-9-0--|



Guitar 1:
E||------------------------------------------|
B||------------------------------------------|
G||--11-9-7-9-9-9-9-99-11-9-7-14-14-14-14----|
D||--x--x-x-x-x-x-x-xx-x--x-x-x--x--x--x--0--| x2
A||--9--7-5-7-7-7-7-77-9--7-5-12-12-12-12-0--|
D||---------------------------------------0--|


Guitar 2:
E||-----------------------------------|
B||-----------------------------------|
G||--------6-6-6-6---7-7-7-7-7-7-7----|
D||--0-0-0-x-x-x-x-0-x-x-x-x-x-x-x-0--| x2
A||--0-0-0-4-4-4-4-0-5-5-5-5-5-5-5-0--|
D||--0-0-0---------0---------------0--|



Outro
Guitar 1:
E||-----------------------------------------|
B||-----------------------------------------|
G||--12-12---11-11-11-11---7-7-7-7-7-7-7----|
D||--x--x--0-x--x--x--x--0-x-x-x-x-x-x-x-0--| x2
A||--10-10-0-9--9--9--9--0-5-5-5-5-5-5-5-0--|
D||--------0-------------0---------------0--|


Guitar 2:
E||-------------------------------------|
B||-------------------------------------|
G||--12-12------------------------------|
D||--x--x--0-8-8-8-8-0-9-9-9-9-9-9-9-0--| x2
A||--10-10-0-9-9-9-9-0-9-9-9-9-9-9-9-0--|
D||--------0-8-8-8-8-0-9-9-9-9-9-9-9-0--|



Guitar 1:
E||---------------------------------------|
B||---------------------------------------|
G||--11-9-7-9-9-9-9-9-11-9-7-14-14-14-14--|
D||--x--x-x-x-x-x-x-x-x--x-x-x--x--x--x---| x3
A||--9--7-5-7-7-7-7-7-9--7-5-12-12-12-12--|
D||---------------------------------------|


E||----------------------------------------|
B||----------------------------------------|
G||--11-9-7-9-9-9-9-9-11-9-7-14-14-14-14\--|
D||--x--x-x-x-x-x-x-x-x--x-x-x--x--x--x-\--|
A||--9--7-5-7-7-7-7-7-9--7-5-12-12-12-12\--|
D||----------------------------------------|


Guitar 2:
E||-----------------------------------|
B||-----------------------------------|
G||--------6-6-6-6---7-7-7-7-7-7-7----|
D||--0-0-0-x-x-x-x-0-x-x-x-x-x-x-x-0--| x3
A||--0-0-0-4-4-4-4-0-5-5-5-5-5-5-5-0--|
D||--0-0-0---------0---------------0--|


E||------------------------------------|
B||------------------------------------|
G||--------6-6-6-6---7-7-7-7-7-7-7-7\--|
D||--0-0-0-x-x-x-x-0-x-x-x-x-x-x-x-x\--|
A||--0-0-0-4-4-4-4-0-5-5-5-5-5-5-5-5\--|
D||--0-0-0---------0-------------------|





Tablature Legend
----------------
 h   hammer-on
 p   pull-off
 b   bend
 pb  pre-bend
 r   release bend
 ~   hold / vibrato
 .   palm mute
 /   slide up
 \   slide down
 *   pinch harmonic
 '   natural harmonic
 x   mute note
 T   tap
Добавлено: 06.05.2014
Вам также может быть интересно:
Другие материалы по этой песне:
  • Аккорды и текст

Страница создана 06.05.2014
http://primanota.ru/armor-for-sleep/way-out-is-broken-album-chords.htm
Привет, Гость.
Предлагаем пройти революционный курс по гитаре.
Подарок от PrimaNota.Ru, забирай!