PrimaNota.ru - самый крупный в мире бесплатный архив песенных текстов, аккордов, табулатур и нот


Armor For Sleep - Vanished - таба, видео

Регистрация Запомнить меня
Войти через:  Facebook Google Twitter Vk Yandex Mail.ru

Armor For Sleep - Vanished - таба, видео

Печатать
Просмотров: 121
-------------------------------------------------------------------------------
                             Vanished - Armor For Sleep
-------------------------------------------------------------------------------
Tabbed by:Ryan
Email:wanrulz@msn.com

NEW EP IS AMAZING. and it just came out, and i always wish people had tabs up
for their songs, so here goes- it was too good to pass up on.

i only have the intro and verse now(im sorry), but its easy, and you could 
probably figure out the rest by these chords? im not 100% sure, i JUST figured 
it out in 5 minutes, and maybe ill tab the rest of the song if i figure it out 
or feel like it.


Tuning:drop d? standard works too, just adjust accordingly.

Intro
Guitar 1
e|-----------------------------------------------------------------------------|
B|------------------------------------7-8-7---7--10---10-7-X3--------777\8/7---|
G|-------------------------------------------9-------9--------7-7-7-9--------97|
D|9999999-\7777777-2222222--11-11-9-7------------------------------------------|
A|9999999-\7777777-2222222--9--9--7-5------------------------------------------|
D|9999999-\7777777-2222222--9--9--7-5------------------------------------------|


Guitar 2
Plays something underneath guitar 1, but cant figure it out. 
e|-----------------------------------------------------------------------------|
B|-----------------------------------------------------------------------------|
G|-----------------------------------------------------------------------------|
D|----?----------------------------------99999999-\77777777-22222222--11-11-9-7|
A|----?----------------------------------99999999-\77777777-22222222--9--9--7-5|
D|----?----------------------------------99999999-\77777777-22222222--9--9--7-5|

Verse
Guitar 1
   xxxxxx xxxxxx             xxxxx     xxxxxx
e|---------------------------------------------------------------------------|
B|---------------------------------------------------------------------------|
G|---------------------------------------------------------------------------|
D|-999999-777777-------------222222----5555555-------------------------------|
A|-999999-777777-------------222222----5555555-x5----------------------------|
D|-999999-777777-------------222222----5555555-------------------------------|
Kids, at play underneath the light of, day
    
Guitar 2     
come in on third time of verse
e|---------------------------------------------------------------------------|
B|-7-8-7---7--10---10-7-X4---------------------------------------------------|
G|-------9-------9-----------------------------------------------------------|
D|---------------------------------------------------------------------------|
A|---------------------------------------------------------------------------|
E|---------------------------------------------------------------------------|

Thats it for now, dont think there are any mistakes from what i think it is,
not 100% either, any suggestions or w/e, email me. or if you have the rest 
of the song, but hope this helps a bit. 


| /  slide up
| \  slide down
| h  hammer-on
| p  pull-off
| ~  vibrato
| +  harmonic
| x  Mute note
Добавлено: 02.04.2012
Другие материалы по этой песне:

Страница создана 02.04.2012
http://primanota.ru/armor-for-sleep/vanished-chords.htm
Привет, Гость.
Предлагаем пройти революционный курс по гитаре.
Подарок от PrimaNota.Ru, забирай!