PrimaNota.ru - самый крупный в мире бесплатный архив песенных текстов, аккордов, табулатур и нот


Armor For Sleep - This Abyss - таба, видео

Регистрация Запомнить меня
Войти через:  Facebook Google Twitter Vk Yandex Mail.ru

Armor For Sleep - This Abyss - таба, видео

Печатать
Просмотров: 148
-------------------------------------------------------------------------------
                             THIS ABYSS - Armor for Sleep
-------------------------------------------------------------------------------
Tabbed by: Eric Hsieh
Email: ericjhsieh@gmail.com

Tuning: C# G# C# F# A# D# (ie drop D for Eb tuning)
        Db Ab Db Gb Bb Eb


I won't bother marking timing since you are probably looking at this simply for the 
(fingering) and can listen to the CD like every other non-deaf person.  Only the power 
are noted, but feel free to embellish with full chords as you see fit.


   Intro/Verse
e|---------------------------------------------------------------------------|
B|---------------------------------------------------------------------------|
G|---------------------------------------------------------------------------|
D|---------------------------------------------------------------------------|
A|---------------------------------------------------------------------------|
E|-9-12-9-12-7-0-7-0-7-5-0-5-0-5-4-0-----------------------------------------|


   Chorus
e|---------------------------------------------------------------------------|
B|---------------------------------------------------------------------------|
G|-4-----------------------4-------------------------------------------------|
D|-4----4--5--0-----4--5---4---4---------------------------------------------|
A|-2----4--5--0-----4--5---2---4---------------------------------------------|
E|------4--5--0-----4--5-------4---------------------------------------------|


| /  slide up
| \  slide down
| h  hammer-on
| p  pull-off
| ~  vibrato
| +  harmonic
| x  Mute note
===============================================================================
Добавлено: 13.06.2012
Другие материалы по этой песне:
  • Аккорды и текст

Страница создана 13.06.2012
http://primanota.ru/armor-for-sleep/this-abyss-chords.htm
Привет, Гость.
Предлагаем пройти революционный курс по гитаре.
Подарок от PrimaNota.Ru, забирай!