PrimaNota.ru - самый крупный в мире бесплатный архив песенных текстов, аккордов, табулатур и нот


Armor For Sleep - The Way Out Is Broken - текст песни, таба, видео

Регистрация Запомнить меня
Войти через:  Facebook Google Twitter Vk Yandex Mail.ru

Armor For Sleep - The Way Out Is Broken - текст песни, таба, видео

Печатать
Просмотров: 96
Уроки эстрадного вокала в Санкт-Петербурге
Tabbed by: Joshua Garcia (joshuag523@aol.com)

Tabs for the song: The Way Out Is Broken by Armor For Sleep
Please rate and let me know if you have any corrections. Thank you.


Tuning: Drop D (D A D G B E)


Intro
Guitar 1:
E||-------------------------------------------------------------------|
B||-------------------------------------------------------------------|
G||--------0-0-0-0-0-0-0-0-0-0-0-0-0-------0-0-0-0-0-0-0-0-0-0-0-0-0--|
D||--5-5-5-5-5-5-5-5-5-5-5-5-5-5-5-5-5-5-5-4-4-4-4-4-4-4-4-4-4-4-4-4--| x2
A||--x-x-x---------------------------2-2-2----------------------------|
D||--2-2-2------------------------------------------------------------|



Verse
Guitar 1:
E||-------------------------------------------------------------------|
B||-------------------------------------------------------------------|
G||--------0-0-0-0-0-0-0-0-0-0-0-0-0-------0-0-0-0-0-0-0-0-0-0-0-0-0--|
D||--5-5-5-5-5-5-5-5-5-5-5-5-5-5-5-5-5-5-5-4-4-4-4-4-4-4-4-4-4-4-4-4--| x4
A||--x-x-x---------------------------2-2-2----------------------------|
D||--2-2-2------------------------------------------------------------|


Guitar 2:
E||-------------------------------------------------------------------|
B||-------------------------------------------------------------------|
G||--------0-0-0-0-0-0-0-0-0-0-0-0-0-5-5-5-0-0-0-0-0-0-0-0-0-0-0-0-0--|
D||--2-2-2-7-7-7-7-7-7-7-7-7-7-7-7-7-5-5-5-4-4-4-4-4-4-4-4-4-4-4-4-4--| x4
A||--2-2-2---------------------------2-2-2----------------------------|
D||--2-2-2------------------------------------------------------------|



Pre-Chorus
Guitar 1 (Left):
E||-------------------------------------------------------------------|
B||-------------------------------------------------------------------|
G||--7-7-7-7---------6-6-6-6---------6-6-6-6---------6-6-6-6----------|
D||--x-x-x-x-x-x-x-x-x-x-x-x-x-x-x-x-x-x-x-x-x-x-x-x-x-x-x-x-x-x-x-x--|
A||--5-5-5-5-x-x-x-x-4-4-4-4-x-x-x-x-4-4-4-4-x-x-x-x-4-4-4-4-x-x-x-x--|
D||----------x-x-x-x---------x-x-x-x---------x-x-x-x---------x-x-x-x--|


E||-------------------------------------------------------------------|
B||-------------------------------------------------------------------|
G||--7-7-7-7---------6-6-6-6---------6-6-6-6---------6-6-6-6----------|
D||--x-x-x-x-x-x-x-x-x-x-x-x-x-x-x-x-x-x-x-x-x-x-x-x-x-x-x-x---0-0-0--|
A||--5-5-5-5-x-x-x-x-4-4-4-4-x-x-x-x-4-4-4-4-x-x-x-x-4-4-4-4---0-0-0--|
D||----------x-x-x-x---------x-x-x-x---------x-x-x-x-----------0-0-0--|
                                                               . . .


Guitar 2 (Right):
E||----------------------------------------------------------------------|
B||----------------------------------------------------------------------|
G||--9-9-9-11---------7-7-7-9---------9-9-9-11---------9-9-9-11----------|
D||--x-x-x-x--x-x-x-x-x-x-x-x-x-x-x-x-x-x-x-x--x-x-x-x-x-x-x-x--x-x-x-x--|
A||--7-7-7-9--x-x-x-x-5-5-5-7-x-x-x-x-7-7-7-9--x-x-x-x-7-7-7-9--x-x-x-x--|
D||-----------x-x-x-x---------x-x-x-x----------x-x-x-x----------x-x-x-x--|


E||----------------------------------------------------------------------|
B||----------------------------------------------------------------------|
G||--9-9-9-11---------7-7-7-9---------9-9-9-11---------9-9-9-11----------|
D||--x-x-x-x--x-x-x-x-x-x-x-x-x-x-x-x-x-x-x-x--x-x-x-x-x-x-x-x----0-0-0--|
A||--7-7-7-9--x-x-x-x-5-5-5-7-x-x-x-x-7-7-7-9--x-x-x-x-7-7-7-9----0-0-0--|
D||-----------x-x-x-x---------x-x-x-x----------x-x-x-x------------0-0-0--|
                                                                  . . .



Chorus
Guitar 1:
E||-----------------------------------------|
B||-----------------------------------------|
G||--12-12---11-11-11-11---7-7-7-7-7-7-7----|
D||--x--x--0-x--x--x--x--0-x-x-x-x-x-x-x-0--| x2
A||--10-10-0-9--9--9--9--0-5-5-5-5-5-5-5-0--|
D||--------0-------------0---------------0--|


Guitar 2:
E||-------------------------------------|
B||-------------------------------------|
G||--12-12------------------------------|
D||--x--x--0-8-8-8-8-0-9-9-9-9-9-9-9-0--| x2
A||--10-10-0-9-9-9-9-0-9-9-9-9-9-9-9-0--|
D||--------0-8-8-8-8-0-9-9-9-9-9-9-9-0--|



Guitar 1:
E||---------------------------------------------|
B||---------------------------------------------|
G||--11-9-7-9-9-9-9-99-11-9-7-14-14-14-14-1414--|
D||--x--x-x-x-x-x-x-xx-x--x-x-x--x--x--x--x-x---| x2
A||--9--7-5-7-7-7-7-77-9--7-5-12-12-12-12-1212--|
D||---------------------------------------------|


Guitar 2:
E||-----------------------------------|------------------------------------|
B||-----------------------------------|------------------------------------|
G||--------6-6-6-6---7-7-7-7-7-7-7----|--------6-6-6-6---7-7-7-7-7-7-7-77--|
D||--0-0-0-x-x-x-x-0-x-x-x-x-x-x-x-0--|--0-0-0-x-x-x-x-0-x-x-x-x-x-x-x-xx--|
A||--0-0-0-4-4-4-4-0-5-5-5-5-5-5-5-0--|--0-0-0-4-4-4-4-0-5-5-5-5-5-5-5-55--|
D||--0-0-0---------0---------------0--|--0-0-0---------0-------------------|



Pre-Verse
Guitar 1:
E||-------------------------------------------------------------------|
B||-------------------------------------------------------------------|
G||--------0-0-0-0-0-0-0-0-0-0-0-0-0-------0-0-0-0-0-0-0-0-0-0-0-0-0--|
D||--5-5-5-5-5-5-5-5-5-5-5-5-5-5-5-5-5-5-5-4-4-4-4-4-4-4-4-4-4-4-4-4--| x2
A||--x-x-x---------------------------2-2-2----------------------------|
D||--2-2-2------------------------------------------------------------|



Verse
Guitar 1 (Dub):
E||--------------5~-----------------|
B||--5-7b8r7~----------8~--7b8r7----|
G||------------7-----7-----------7--|
D||---------------------------------| x4
A||---------------------------------|
D||---------------------------------|


Guitar 1:
E||-------------------------------------------------------------------|
B||-------------------------------------------------------------------|
G||--------0-0-0-0-0-0-0-0-0-0-0-0-0-------0-0-0-0-0-0-0-0-0-0-0-0-0--|
D||--5-5-5-5-5-5-5-5-5-5-5-5-5-5-5-5-5-5-5-4-4-4-4-4-4-4-4-4-4-4-4-4--| x2
A||--x-x-x---------------------------2-2-2----------------------------|
D||--2-2-2------------------------------------------------------------|


Guitar 2:
E||-------------------------------------------------------------------|
B||-------------------------------------------------------------------|
G||--------0-0-0-0-0-0-0-0-0-0-0-0-0-5-5-5-0-0-0-0-0-0-0-0-0-0-0-0-0--|
D||--2-2-2-7-7-7-7-7-7-7-7-7-7-7-7-7-5-5-5-4-4-4-4-4-4-4-4-4-4-4-4-4--| x2
A||--2-2-2---------------------------2-2-2----------------------------|
D||--2-2-2------------------------------------------------------------|



Pre-Chorus
Guitar 1 (Left):
E||-------------------------------------------------------------------|
B||-------------------------------------------------------------------|
G||--7-7-7-7---------6-6-6-6---------6-6-6-6---------6-6-6-6----------|
D||--x-x-x-x-x-x-x-x-x-x-x-x-x-x-x-x-x-x-x-x-x-x-x-x-x-x-x-x-x-x-x-x--|
A||--5-5-5-5-x-x-x-x-4-4-4-4-x-x-x-x-4-4-4-4-x-x-x-x-4-4-4-4-x-x-x-x--|
D||----------x-x-x-x---------x-x-x-x---------x-x-x-x---------x-x-x-x--|


E||-------------------------------------------------------------------|
B||-------------------------------------------------------------------|
G||--7-7-7-7---------6-6-6-6---------6-6-6-6---------6-6-6-6----------|
D||--x-x-x-x-x-x-x-x-x-x-x-x-x-x-x-x-x-x-x-x-x-x-x-x-x-x-x-x---0-0-0--|
A||--5-5-5-5-x-x-x-x-4-4-4-4-x-x-x-x-4-4-4-4-x-x-x-x-4-4-4-4---0-0-0--|
D||----------x-x-x-x---------x-x-x-x---------x-x-x-x-----------0-0-0--|
                                                               . . .


Guitar 2 (Right):
E||----------------------------------------------------------------------|
B||----------------------------------------------------------------------|
G||--9-9-9-11---------7-7-7-9---------9-9-9-11---------9-9-9-11----------|
D||--x-x-x-x--x-x-x-x-x-x-x-x-x-x-x-x-x-x-x-x--x-x-x-x-x-x-x-x--x-x-x-x--|
A||--7-7-7-9--x-x-x-x-5-5-5-7-x-x-x-x-7-7-7-9--x-x-x-x-7-7-7-9--x-x-x-x--|
D||-----------x-x-x-x---------x-x-x-x----------x-x-x-x----------x-x-x-x--|


E||----------------------------------------------------------------------|
B||----------------------------------------------------------------------|
G||--9-9-9-11---------7-7-7-9---------9-9-9-11---------9-9-9-11----------|
D||--x-x-x-x--x-x-x-x-x-x-x-x-x-x-x-x-x-x-x-x--x-x-x-x-x-x-x-x----0-0-0--|
A||--7-7-7-9--x-x-x-x-5-5-5-7-x-x-x-x-7-7-7-9--x-x-x-x-7-7-7-9----0-0-0--|
D||-----------x-x-x-x---------x-x-x-x----------x-x-x-x------------0-0-0--|
                                                                  . . .


Chorus
Guitar 1:
E||-----------------------------------------|
B||-----------------------------------------|
G||--12-12---11-11-11-11---7-7-7-7-7-7-7----|
D||--x--x--0-x--x--x--x--0-x-x-x-x-x-x-x-0--| x2
A||--10-10-0-9--9--9--9--0-5-5-5-5-5-5-5-0--|
D||--------0-------------0---------------0--|


Guitar 2:
E||-------------------------------------|
B||-------------------------------------|
G||--12-12------------------------------|
D||--x--x--0-8-8-8-8-0-9-9-9-9-9-9-9-0--| x2
A||--10-10-0-9-9-9-9-0-9-9-9-9-9-9-9-0--|
D||--------0-8-8-8-8-0-9-9-9-9-9-9-9-0--|



Guitar 1:
E||---------------------------------------------|-----------------------------------------|
B||---------------------------------------------|-----------------------------------------|
G||--11-9-7-9-9-9-9-99-11-9-7-14-14-14-14-1414--|--11-9-7-9-9-9-9-99-11-9-7-14-14-14-14\--|
D||--x--x-x-x-x-x-x-xx-x--x-x-x--x--x--x--x-x---|--x--x-x-x-x-x-x-xx-x--x-x-x--x--x--x-\--|
A||--9--7-5-7-7-7-7-77-9--7-5-12-12-12-12-1212--|--9--7-5-7-7-7-7-77-9--7-5-12-12-12-12\--|
D||---------------------------------------------|-----------------------------------------|


Guitar 2:
E||-----------------------------------|----------------------------------|
B||-----------------------------------|----------------------------------|
G||--------6-6-6-6---7-7-7-7-7-7-7----|--------6-6-6-6---7-7-7-7-7-7-7\--|
D||--0-0-0-x-x-x-x-0-x-x-x-x-x-x-x-0--|--0-0-0-x-x-x-x-0-x-x-x-x-x-x-x\--|
A||--0-0-0-4-4-4-4-0-5-5-5-5-5-5-5-0--|--0-0-0-4-4-4-4-0-5-5-5-5-5-5-5\--|
D||--0-0-0---------0---------------0--|--0-0-0---------0-----------------|



Interlude
Guitar 1:
E||--------------------------------------|--------------------------------------|
B||--------------------------------------|--------------------------------------|
G||--------------------------------------|--------------------------------------|
D||------2-----7---------12-11-9----9----|------2-----7---------12-11-9----9----|
A||----2-----5---5-----9---------12---9--|----2-----5---5-----9---------12---9--|
D||--2-----5-------5-9-------------------|--2-----5-------5-9-------------------|


Guitar 2:
E||----2~3-2~----------2~3-2~------------|----2~3-2~----------2~3-2~------------|
B||--2~--------------2~------------------|--2~--------------2~------------------|
G||--------------------------------------|--------------------------------------|
D||--------------------------------------|--------------------------------------|
A||--------------------------------------|--------------------------------------|
D||--------------------------------------|--------------------------------------|



Bridge
Guitar 1:
E||------------------------------------|-------------------------------------------|
B||------------------------------------|-------------------------------------------|
G||------------------------------------|-------------------------------------------|
D||------------------------------------|-------------------11-11-11-11-11-11-11----|
A||------------------------------------|-------------------9--9--9--9--9--9--9-----|
D||--2-2-0-5-5-5-5/-0-9-9-9-9-9-9-9-0--|--2-2-0-5-5-5-5/-0-9--9--9--9--9--9--9-00--|
                                                                               ..


Chorus
Guitar 1:
E||-----------------------------------------|
B||-----------------------------------------|
G||--12-12---11-11-11-11---7-7-7-7-7-7-7----|
D||--x--x--0-x--x--x--x--0-x-x-x-x-x-x-x-0--| x2
A||--10-10-0-9--9--9--9--0-5-5-5-5-5-5-5-0--|
D||--------0-------------0---------------0--|


Guitar 2:
E||-------------------------------------|
B||-------------------------------------|
G||--12-12------------------------------|
D||--x--x--0-8-8-8-8-0-9-9-9-9-9-9-9-0--| x2
A||--10-10-0-9-9-9-9-0-9-9-9-9-9-9-9-0--|
D||--------0-8-8-8-8-0-9-9-9-9-9-9-9-0--|



Guitar 1:
E||------------------------------------------|
B||------------------------------------------|
G||--11-9-7-9-9-9-9-99-11-9-7-14-14-14-14----|
D||--x--x-x-x-x-x-x-xx-x--x-x-x--x--x--x--0--| x2
A||--9--7-5-7-7-7-7-77-9--7-5-12-12-12-12-0--|
D||---------------------------------------0--|


Guitar 2:
E||-----------------------------------|
B||-----------------------------------|
G||--------6-6-6-6---7-7-7-7-7-7-7----|
D||--0-0-0-x-x-x-x-0-x-x-x-x-x-x-x-0--| x2
A||--0-0-0-4-4-4-4-0-5-5-5-5-5-5-5-0--|
D||--0-0-0---------0---------------0--|



Outro
Guitar 1:
E||-----------------------------------------|
B||-----------------------------------------|
G||--12-12---11-11-11-11---7-7-7-7-7-7-7----|
D||--x--x--0-x--x--x--x--0-x-x-x-x-x-x-x-0--| x2
A||--10-10-0-9--9--9--9--0-5-5-5-5-5-5-5-0--|
D||--------0-------------0---------------0--|


Guitar 2:
E||-------------------------------------|
B||-------------------------------------|
G||--12-12------------------------------|
D||--x--x--0-8-8-8-8-0-9-9-9-9-9-9-9-0--| x2
A||--10-10-0-9-9-9-9-0-9-9-9-9-9-9-9-0--|
D||--------0-8-8-8-8-0-9-9-9-9-9-9-9-0--|



Guitar 1:
E||---------------------------------------|
B||---------------------------------------|
G||--11-9-7-9-9-9-9-9-11-9-7-14-14-14-14--|
D||--x--x-x-x-x-x-x-x-x--x-x-x--x--x--x---| x3
A||--9--7-5-7-7-7-7-7-9--7-5-12-12-12-12--|
D||---------------------------------------|


E||----------------------------------------|
B||----------------------------------------|
G||--11-9-7-9-9-9-9-9-11-9-7-14-14-14-14\--|
D||--x--x-x-x-x-x-x-x-x--x-x-x--x--x--x-\--|
A||--9--7-5-7-7-7-7-7-9--7-5-12-12-12-12\--|
D||----------------------------------------|


Guitar 2:
E||-----------------------------------|
B||-----------------------------------|
G||--------6-6-6-6---7-7-7-7-7-7-7----|
D||--0-0-0-x-x-x-x-0-x-x-x-x-x-x-x-0--| x3
A||--0-0-0-4-4-4-4-0-5-5-5-5-5-5-5-0--|
D||--0-0-0---------0---------------0--|


E||------------------------------------|
B||------------------------------------|
G||--------6-6-6-6---7-7-7-7-7-7-7-7\--|
D||--0-0-0-x-x-x-x-0-x-x-x-x-x-x-x-x\--|
A||--0-0-0-4-4-4-4-0-5-5-5-5-5-5-5-5\--|
D||--0-0-0---------0-------------------|




Tablature Legend
----------------
 h   hammer-on
 p   pull-off
 b   bend
 pb  pre-bend
 r   release bend
 ~   hold / vibrato
 .   palm mute
 /   slide up
 \   slide down
 *   pinch harmonic
 '   natural harmonic
 x   mute note
 T   tap
Добавлено: 18.06.2014
Другие материалы по этой песне:
  • Аккорды и текст

Страница создана 24.05.2012
http://primanota.ru/armor-for-sleep/the-way-out-is-broken-chords.htm
Привет, Гость.
Предлагаем пройти революционный курс по гитаре.
Подарок от PrimaNota.Ru, забирай!