PrimaNota.ru - самый крупный в мире бесплатный архив песенных текстов, аккордов, табулатур и нот


Armor For Sleep - The Wanderers Guild - текст песни, таба, видео

Регистрация Запомнить меня
Войти через:  Facebook Google Twitter Vk Yandex Mail.ru

Armor For Sleep - The Wanderers Guild - текст песни, таба, видео

Печатать
Просмотров: 143
Wanderers Guild
Armor For Sleep
"What To Do When Your Dead"

tabbed by matt owen
any questions
aim-touchttam
myspace-sexualxxoutkast
email-sexualxxoutkast@yahoo.com


E|-----------------------------------------------------|
B|-------------------0---------------0--------------0--|
G|--------0---------------12-----------5----------5----|
D|------9--------11----10---------5-------------5------|
A|----7--------9----------------3-------------3--------|
D|--7--------9----------------3-------------3----------|
 |       play one time with out other guitar           | x4  ??
 |                                                     |
E|--3-3-3-3--3-3-3-3-3-3-3-3---------------------------|
B|--5-5-5-5--5-5-5-5-5-5-5-5--5-5-5-5-5-5-5-5-5-5-5-5--|
G|----------------------------5-5-5-5-5-5-5-5-5-5-5-5--|
D|-----------------------------------------------------|
A|-----------------------------------------------------|
D|-----------------------------------------------------|

E|-----------------------------------------------------|
B|-----------------------------------------------------|
G|-5-5-5-7-7-7-9-9-9-9-9-9-9-9---12-xxx-11-11-xx-9-9-9-|
D|-x-x-x-x-x-x-x-x-x-x-x-x-x-x----x-xxx--x--x-xx-x-x-x-|
A|-3-3-3-5-5-5-7-7-7-7-7-7-7-7---10-xxx--9--9-xx-7-7-7-|
D|-----------------------------------------------------|
 |
 |
E|-----------------------------------------------------|
B|-----------------------------------------------------|
G|-----------------------------------------------------|
D|-5-5-5-5-5-5-8-8-8-8-8-8-8-8---2-2-xxx-2-2-2-xxx-2-2-|
A|-5-5-5-5-5-5-8-8-8-8-8-8-8-8---2-2-xxx-2-2-2-xxx-2-2-|
D|-5-5-5-5-5-5-8-8-8-8-8-8-8-8---2-2-xxx-2-2-2-xxx-2-2-|

that's all i could figure out. i gave up cuz it was like 3 in the morning & i had skool 
next day. (lol)
Добавлено: 09.06.2012
Другие материалы по этой песне:

Страница создана 27.02.2012
http://primanota.ru/armor-for-sleep/the-wanderers-guild-chords.htm
Привет, Гость.
Предлагаем пройти революционный курс по гитаре.
Подарок от PrimaNota.Ru, забирай!