PrimaNota.ru - самый крупный в мире бесплатный архив песенных текстов, аккордов, табулатур и нот


Armor For Sleep - Smile For The Camera - текст песни, таба, видео

Регистрация Запомнить меня
Войти через:  Facebook Google Twitter Vk Yandex Mail.ru

Armor For Sleep - Smile For The Camera - текст песни, таба, видео

Печатать
Просмотров: 163
---------------------------------------------------------------------------
                  SMILE FOR THE CAMERA - Armor For Sleep
---------------------------------------------------------------------------
Tabbed by: Donnie San Diego
Email: imsexydonnie@msn.com

Tuning: Drop-D

INTRO
e|--7h9--------------9p0-9p0-12p0-9p0-------------------------------------|
B|-----7h9-7p0-0h7p0------------------------------------------------------|
G|------------------------------------------------------------------------|
D|------------------------------------------------------------------------|
A|------------------------------------------------------------------------|
D|------------------------------------------------------------------------|

VERSE
e|--7/9---------5/7---------3/5--------------7B---------------------------|
B|-----7B----------5B----------3B--------3/5------------------------------|
G|------------------------------------------------------------------------|
D|------------------------------------------------------------------------|
A|------------------------------------------------------------------------|
D|------------------------------------------------------------------------|

PRE-CHORUS
e|------------------------------------------------------------------------|
B|------------------------------------------------------------------------|
G|------------------------------------------------------------------------|
D|-4~---------------------------------------------------------------------|
A|-4~--(PALM MUTE, THEN PULL PICK HAND OFF STRINGS AND LET RING)----------|
D|-4~---------------------------------------------------------------------|

CHORUS (RHYTHM)
e|------------------------------------------------------------------------|
B|------------------------------------------------------------------------|
G|-------------------------------------------------2222-22-1111-11--------|
D|-4444-44-4444-44-0000-00-0000-00-4444-44-4444-44-2222-22-2222-22--------|
A|-4444-44-4444-44-0000-00-0000-00-2222-22-2222-22-0000-00-0000-00--------|
D|-4444-44-4444-44-0000-00-0000-00-2222-22-2222-22------------------------|

BRIDGE PART 1
e|------------------------------------------------------------------------|
B|------------------------------------------------------------------------|
G|-9b-7b-6b---------14b\----------9b-7b-6b---------9b\--------------------|
D|------------------------------------------------------------------------|
A|------------------------------------------------------------------------|
D|------------------------------------------------------------------------|

BRIDGE/OUTRO
e|------------------------------------------------------------------------|
B|------------------------------------------------------------------------|
G|-------------13131313131313----------------13131313b-1313---------------|
D|-000-222-444-XXXXXXXXXXXXXX----000-222-444-XXXXXXXX--X-X----------------|
A|-000-222-444-11111111111111----000-222-444-11111111b-1111---------------|
D|-000-222-444-------------------000-222-444------------------------------|

e|------------------------------------------------------------------------|
B|------------------------------------------------------------------------|
G|-------------13131313131313---------------------------------------------|
D|-000-222-444-XXXXXXXXXXXXXX----000-222-4~-------------------------------|
A|-000-222-444-11111111111111----000-222-4~-------------------------------|
D|-000-222-444-------------------000-222-4~-------------------------------|

OUTRO
e|------------------------------------------------------------------------|
B|------------------------------------------------------------------------|
G|-12b-9b-11b----12b-9b-11b----12b-9b-11b----12b-11b-9b~------------------|
D|------------------------------------------------------------------------|
A|------------------------------------------------------------------------|
D|------------------------------------------------------------------------|


| /  slide up
| \  slide down
| h  hammer-on
| p  pull-off
| ~  let ring
| +  harmonic
| x  Mute note
===========================================================================
Добавлено: 02.03.2012
Другие материалы по этой песне:

Страница создана 02.03.2012
http://primanota.ru/armor-for-sleep/smile-for-the-camera-chords.htm
Привет, Гость.
Предлагаем пройти революционный курс по гитаре.
Подарок от PrimaNota.Ru, забирай!