PrimaNota.ru - самый крупный в мире бесплатный архив песенных текстов, аккордов, табулатур и нот


Armor For Sleep - Lullaby - таба, видео

Регистрация Запомнить меня
Войти через:  Facebook Google Twitter Vk Yandex Mail.ru

Armor For Sleep - Lullaby - таба, видео

Печатать
Просмотров: 161
Artist: Armor for Sleep
CD: Smile for Them
Song: Lullaby
Tuning: Drop D
Tabbed By: Chris McKinnon
A surprisingly good song off of their album "Smile for Them."
*Listen to the song for strumming. This is correct, improvise if you want.

Intro/Verse: Rhythm / Lead (Played together twice)
E|-------------------------------------------------------------|| x2
B|-------------------------------------------------------------||
G|------666--x--777--x--6666666666-----------------------------||
D|------xxx--x--999--x--4444444444-----------------------------||
A|------777--x--999--x--4444444444-----------------------------||
D|------777--x----------4444444444-----------------------------||

E|-------------------------------------------------------------|| x1
B|-------------------------------------------------------------||
G|------666--x--777--x--666-x-444-x-2222s66666s22-------------||
D|------xxx--x--999--x--xxx-x-666-x-0000000000000-------------||
A|------777--x--999--x--777-x-777-x-0000000000000-------------||
D|------777--x----------777-x-000-x-0000000000000-------------||

Chorus: Rhythm

E|-------------------------------------------------------------------|| x2
B|-------------------------------------------------------------------||
G|------666666666666--4444444444444---------------22222222222222222--||
D|------xxxxxxxxxxxx--6666666666666--1111111111---00000000000000000--||
A|------777777777777--7777777777777--9999999999---00000000000000000--||
D|------777777777777--0000000000000--9999999999---00000000000000000--||

Chorus: Lead 

E|-------17---17----17----17----16----16-----16----16---------------|| 
B|----14---14----14----14-----14----14----14----14------------------||
G|--14---14----14----14-----13---13----13----13---------------------||
D|------------------------------------------------------------------||
A|------------------------------------------------------------------||
D|------------------------------------------------------------------||

Chorus: Lead Cont. (Fast Picking)

E|-16-----16-----17----17----16----16-----17----17------------------||x2
B|----14----14-----14----14-----14----14----14----14----------------||
G|-------13---13------14----14-----13----13----14----14-------------||
D|------------------------------------------------------------------||
A|------------------------------------------------------------------||
D|------------------------------------------------------------------||

Post Chorus:

E|-------------------------------------------------------------|| x1
B|-------------------------------------------------------------||
G|------666--x--777--x--666-x-444-x-22222s66666s22-------------||
D|------xxx--x--999--x--xxx-x-666-x-00000000000000-------------||
A|------777--x--999--x--777-x-777-x-00000000000000-------------||
D|------777--x----------777-x-000-x-00000000000000-------------||

Next: Repeat verse twice then chorus.

Fill: Right before the breakdown (2:05) - Rhythm / Lead

E|-------------------------------------------------------------|| x1
B|-------------------------------------------------------------||
G|------666--x--777--x--6666666666-----------------------------||
D|------xxx--x--999--x--4444444444-----------------------------||
A|------777--x--999--x--4444444444-----------------------------||
D|------777--x----------4444444444-----------------------------||

E|-------------------------------------------------------------|| x1
B|-------------------------------------------------------------||
G|------666--x--777--x--666-x-444-x-2~-------------------------||
D|------xxx--x--999--x--xxx-x-666-x-0~-------------------------||
A|------777--x--999--x--777-x-777-x-0~-------------------------||
D|------777--x----------777-x-000-x-0~-------------------------||

Breakdown: Rhythm

E|-xxx------------------------------------------------------------|| x3
B|-xxx------------------------------------------------------------||
G|-xxx------------------------------------------------------------||
D|-xxx-121212121212121212---4444444444444444---222222222222222----||
A|-xxx-121212121212121212---4444444444444444---222222222222222----||
D|-xxx-121212121212121212---4444444444444444---222222222222222----||
       . . .

Breakdown Lead:(Play the first few softly then let ring)

E|---------------------------------------16-16-----16-16-----19-19------19-19-----||
B|-14-14-14-14-14----14b15b14--12-(x20)-------14b--------14b-------17b-------17b--||
G|--------------------------------------------------------------------------------||
D|--------------------------------------------------------------------------------||
A|--------------------------------------------------------------------------------||
D|--------------------------------------------------------------------------------||

Chorus: Rhythm

E|-------------------------------------------------------------------|| x4
B|-------------------------------------------------------------------||
G|------666666666666--4444444444444---------------22222222222222222--||
D|------xxxxxxxxxxxx--6666666666666--1111111111---00000000000000000--||
A|------777777777777--7777777777777--9999999999---00000000000000000--||
D|------777777777777--0000000000000--9999999999---00000000000000000--||

Chorus: Lead (Different from before, don't let these notes ring)

E|-----17-------17---------17--------17-------16------16-------16------16---||
B|-14--------14--------14--------14--------14-------14------14------14------||
G|--------14-------14---------14-------14--------13-----13------13------13--||
D|--------------------------------------------------------------------------||
A|--------------------------------------------------------------------------||
D|--------------------------------------------------------------------------||

E|-16-----16-----17----17----16----16-----17----17------------------||x2
B|----14----14-----14----14-----14----14----14----14----------------||
G|-------13---13------14----14-----13----13----14----14-------------||
D|------------------------------------------------------------------||
A|------------------------------------------------------------------||
D|------------------------------------------------------------------||

E|--------------------16-16---------17-17-----------------19----19----||x2
B|--14b15b14--12-(x4)------14b--(x4)-----15b--(x2)-----14-----14------||
G|---------------------------------------------------14-----14--------||
D|--------------------------------------------------------------------||
A|--------------------------------------------------------------------||
D|--------------------------------------------------------------------||

Outro: Rhythm

E|--------------------------------------------------------------------|| x1
B|--------------------------------------------------------------------||
G|------666--x--777--x--666-x-444-x-222---666--x--777--x--2~----------||
D|------xxx--x--999--x--xxx-x-666-x-000~--xxx--x--999--x--0~----------||
A|------777--x--999--x--777-x-777-x-000~--777--x--999--x--0~----------||
D|------777--x----------777-x-000-x-000~--777--x----------0~----------||



Добавлено: 20.06.2012
Другие материалы по этой песне:
  • Аккорды и текст

Страница создана 20.06.2012
http://primanota.ru/armor-for-sleep/lullaby-chords.htm
Привет, Гость.
Предлагаем пройти революционный курс по гитаре.
Подарок от PrimaNota.Ru, забирай!