PrimaNota.ru - самый крупный в мире бесплатный архив песенных текстов, аккордов, табулатур и нот


Armor For Sleep - I Have Been Right All Along - текст песни, таба, видео

Регистрация Запомнить меня
Войти через:  Facebook Google Twitter Vk Yandex Mail.ru

Armor For Sleep - I Have Been Right All Along - текст песни, таба, видео

Печатать
Просмотров: 118
Title:  I Have Been Right All Along
Artist: Armor For Sleep
Album:  What To Do When Your Dead

         tabbed by: Matt Owen (sexualxxoutkast@yahoo.com)
aim: touch ttam            myspace:www.myspace.com/sexualxxoutkast

tuning- Drop D (D,A,D,G,B,E)
guitar 1-lead   - Pj
guitar 2-rythym - Ben

         guitar 1
E|-----------------|x4----------------------------------------|x2----||x2
B|----------7-7-7--|----------7--7--7------------7--7--7------|------||
G|-----------4-4-4-|-----------4--4--4------------4--4--4-----|------||
D|-7p5-7p5---------|-7p5-7p5------------7p5-7p5---------------|-xxxx-||
A|-----------------|------------------------------------------|-xxxx-||
D|-----------------|------------------------------------------|-xxxx-||
 |
 |       guitar 2
E|-----------------|x4----------------------------------------|x2----||x2
B|-R>>>>>>>>>>>----|------------------------------------------|------||
G|-E>>>>>>>>>>>----|------------------------------------------|------||
D|-S>>>>>>>>>>>----|-2-2-2-2-2-5-5-5-5-5-4-4-4-4-4-4-4-4-4-4--|-xxxx-||
A|-T>>>>>>>>>>>----|-2-2-2-2-2-5-5-5-5-5-4-4-4-4-4-4-4-4-4-4--|-xxxx-||
D|-----------------|-2-2-2-2-2-5-5-5-5-5-4-4-4-4-4-4-4-4-4-4--|-xxxx-||
                    (Now i'm hiding behind your staircase...)

         guitar 1
E||---------------------------------||
B||---------------------------------||
G||---------------------------------||
D||-------4--------------4----------||
A||-2h3h5---0------2h3h5------------||
D||-----------5------------5-2------||
 |
 |      guitar 2
E||---------------------------------||
B||---------------------------------||
G||---------------------------------||
D||-------4--------------4----------||
A||-2-------0-----2-----------------||
D||-----------5------------5-2------||
      (You can't turn off that...)


        guitar 1
E|-----------------------------------------------------||
B|-----------------------------------------------------||
G|----------------------9/11-9-7-----------------------||
D|--9-9-9-9-9-x-9-9-9-9-x-x--x-x--5-5-5-5-5-x-7-7-7-7--||
A|--9-9-9-9-9-x-9-9-9-9-7/9--7-5--5-5-5-5-5-x-5-5-5-5--||
D|--9-9-9-9-9-x-9-9-9-9-----------5-5-5-5-5-x-5-5-5-5--||
 |
 |      guitar 2
E|-----------------------------------------------------||
B|-----------------------------------------------------||
G|-----------------------------------------------------||
D|--9-9-9-9-9---9-9-9-9-----------5-5-5-5-5---7-7-7-7--||
A|--9-9-9-9-9---9-9-9-9-----------5-5-5-5-5---5-5-5-5--||
D|--9-9-9-9-9---9-9-9-9-----------5-5-5-5-5------------||
   (Thought i was dreamin...)

        guitar 1
E|-------------------------------------------|
B|-------------------------------------------|
G|---------------------------------------7~--|
D|-7-7-7--7-7---5-5-5--5-5---7-7-7--7-7--7~--|
A|-7-7-7--7-7---5-5-5--5-5---7-7-7--7-7--5~--|
D|-7-7-7--7-7---5-5-5--5-5---7-7-7--7-7--5~--|
 |
 |      guitar 2
E|-------------------------------------------|
B|-------------------------------------------|
G|---------------------------------------7~--|
D|-7------------5------------7-----------7~--|
A|-7------------5------------7-----------5~--|
D|-7------------5------------7-----------5~--|

        guitar 1
E|-------------------------------------|
B|-------------------------------------|
G|-------------------------------------|
D|-----4--------------4^5^4------------|
A|--------2--0------2--------2--0------|
D|--2------------5---------------------|
 |
 |      guitar 2
E|-------------------------------------|
B|-------------------------------------|
G|-------------------------------------|
D|-------------------------------------|
A|-----9--------------9^10^9-----------|
D|--2-----9--7---5--9--------9--7------|



now just arrange it how it's supposed to be then there you have it. fairly simple i'd say.

   
Добавлено: 14.03.2012
Другие материалы по этой песне:
  • Аккорды и текст

Страница создана 14.03.2012
http://primanota.ru/armor-for-sleep/i-have-been-right-all-along-chords.htm
Привет, Гость.
Предлагаем пройти революционный курс по гитаре.
Подарок от PrimaNota.Ru, забирай!