PrimaNota.ru - самый крупный в мире бесплатный архив песенных текстов, аккордов, табулатур и нот


Armia - Kochaj Mnie - таба, видео

Регистрация Запомнить меня
Войти через:  Facebook Google Twitter Vk Yandex Mail.ru

Armia - Kochaj Mnie - таба, видео

Печатать
Просмотров: 134
Armia
"Kochaj Mnie"

# Intro #

E||-------------------------------------|| x4
H||-------------------------------------||
G||-*---------------------------------*-||
D||-*-6---6---5---5---6---6---6---6---*-||
A||---6---6---5---5---6---6---6---6-----||
E||---4---4---3---3---4---4---4---4-----||

E||-------------------------------------|| x4
H||-------------------------------------||
G||-*---------------------------------*-||
D||-*-6---6---6---6---5---5---5---5---*-||
A||---6---6---6---6---5---5---5---5-----||
E||---4---4---4---4---3---3---3---3-----||

# Zwrotka 1 #

E||-------------------------------------|| x4
H||-------------------------------------||
G||-*---------------------------------*-||
D||-*-----------5-5-5-----------5-5-5-*-||
A||-----6-6-6-0-3-3-3---6-6-6-0-3-3-3---||
E||---0-4-4-4---------0-4-4-4-----------||

Ojciec, syn i duch,
zamknięci na klucz.
A okna i drzwi,
z ciała i krwi.
Wszystko w szumie fal.
Wszystko w oczach psa.
I w mistycznym ciele.
To w pijanym śnie.

# Refren #
 
E||-------------------------------------|| 
H||-------------------------------------||
G||-------------------------------------||
D||---3-3-3-3-3-3-3-3-3-3-3-3-3-3-3-3---||
A||---1-1-1-1-1-1-1-1-1-1-1-1-1-1-1-1---||
E||-------------------------------------||

Każdy bawić się chce, każdy cieszyć się chce.

E||-------------------------------------|| 
H||-------------------------------------||
G||-------------------------------------||
D||---5-5-5-5-5-5-5-5-5-5-5-5-5-5-5-5---||
A||---3-3-3-3-3-3-3-3-3-3-3-3-3-3-3-3---||
E||-------------------------------------||

Kto ma płakać więc.

E||-------------------------------------|| 
H||-------------------------------------||
G||-------------------------------------||
D||---3-3-3-3-2-2-2-2-2-2-2-2-2-2-2-2---||
A||---1-1-1-1-0-0-0-0-0-0-0-0-0-0-0-0---||
E||-------------------------------------||

Nie dostrzega się łez.

E||-------------------------------------|| x2
H||-------------------------------------||
G||-*---------------------------------*-||
D||-*-----------5-5-5-----------5-5-5-*-||
A||-----6-6-6-0-3-3-3---6-6-6-0-3-3-3---||
E||---0-4-4-4---------0-4-4-4-----------||

I woła świat,
cały świat.
Kochaj mnie.
Kochaj mnie.

# Przejście #

E||-------------------------------------|| x4
H||-------------------------------------||
G||-*---------------------------------*-||
D||-*-----------5-5-5-----------5-5-5-*-||
A||-----6-6-6-0-3-3-3---6-6-6-0-3-3-3---||
E||---0-4-4-4---------0-4-4-4-----------||
 
# Zwrotka 2 #

E||-------------------------------------|| x4
H||-------------------------------------||
G||-*---------------------------------*-||
D||-*-----------5-5-5-----------5-5-5-*-||
A||-----6-6-6-0-3-3-3---6-6-6-0-3-3-3---||
E||---0-4-4-4---------0-4-4-4-----------||

Ojciec, syn i duch,
zamknięci na klucz.
A okna i drzwi,
z ciała i krwi.
Wszystko w szumie fal.
Wszystko w oczach psa.
I w mistycznym ciele.
To w pijanym śnie.

# Refren #
 
E||-------------------------------------|| 
H||-------------------------------------||
G||-------------------------------------||
D||---3-3-3-3-3-3-3-3-3-3-3-3-3-3-3-3---||
A||---1-1-1-1-1-1-1-1-1-1-1-1-1-1-1-1---||
E||-------------------------------------||

Każdy bawić się chce, każdy cieszyć się chce.

E||-------------------------------------|| 
L||-------------------------------------||
G||-------------------------------------||
D||---5-5-5-5-5-5-5-5-5-5-5-5-5-5-5-5---||
A||---3-3-3-3-3-3-3-3-3-3-3-3-3-3-3-3---||
E||-------------------------------------||

Kto ma płakać więc.

E||-------------------------------------|| 
H||-------------------------------------||
G||-------------------------------------||
D||---3-3-3-3-2-2-2-2-2-2-2-2-2-2-2-2---||
A||---1-1-1-1-0-0-0-0-0-0-0-0-0-0-0-0---||
E||-------------------------------------||

Nie dostrzega się łez.

E||-------------------------------------|| x2
H||-------------------------------------||
G||-*---------------------------------*-||
D||-*-----------5-5-5-----------5-5-5-*-||
A||-----6-6-6-0-3-3-3---6-6-6-0-3-3-3---||
E||---0-4-4-4---------0-4-4-4-----------||

I woła świat,
cały świat.
Kochaj mnie.
Kochaj mnie.

# Przejście 2 #

E||-------------------------------------|| x8
H||-------------------------------------||
G||-*---------------------------------*-||
D||-*-6---6---6---6---5---5---5---5---*-||
A||---6---6---6---6---5---5---5---5-----||
E||---4---4---4---4---3---3---3---3-----||

# Zwrotka 3 #

E||-------------------------------------|| x4
H||-------------------------------------||
G||-*---------------------------------*-||
D||-*-----------5-5-5-----------5-5-5-*-||
A||-----6-6-6-0-3-3-3---6-6-6-0-3-3-3---||
E||---0-4-4-4---------0-4-4-4-----------||

Ojciec, syn i duch,
zamknięci na klucz.
A okna i drzwi,
z ciała i krwi.
Wszystko w szumie fal.
Wszystko w oczach psa.
I w mistycznym ciele.
To w pijanym śnie.

# Refren #
 
E||-------------------------------------|| 
H||-------------------------------------||
G||-------------------------------------||
D||---3-3-3-3-3-3-3-3-3-3-3-3-3-3-3-3---||
A||---1-1-1-1-1-1-1-1-1-1-1-1-1-1-1-1---||
E||-------------------------------------||

Każdy bawić się chce, każdy cieszyć się chce.

E||-------------------------------------|| 
H||-------------------------------------||
G||-------------------------------------||
D||---5-5-5-5-5-5-5-5-5-5-5-5-5-5-5-5---||
A||---3-3-3-3-3-3-3-3-3-3-3-3-3-3-3-3---||
E||-------------------------------------||

Kto ma płakać więc.

E||-------------------------------------|| 
H||-------------------------------------||
G||-------------------------------------||
D||---3-3-3-3-2-2-2-2-2-2-2-2-2-2-2-2---||
A||---1-1-1-1-0-0-0-0-0-0-0-0-0-0-0-0---||
E||-------------------------------------||

Nie dostrzega się łez.

E||-------------------------------------|| x2
H||-------------------------------------||
G||-*---------------------------------*-||
D||-*-----------5-5-5-----------5-5-5-*-||
A||-----6-6-6-0-3-3-3---6-6-6-0-3-3-3---||
E||---0-4-4-4---------0-4-4-4-----------||

I woła świat,
cały świat.
Kochaj mnie.
Kochaj mnie. 

# Outro #

E||-------------------------------------|| x20
H||-------------------------------------||
G||-------------------------------------||
D||---6-6-6-6-5-5-5-5-4-4-4-4-4-4-4-4---||
A||---4-4-4-4-3-3-3-3-2-2-2-2-2-2-2-2---||
E||-------------------------------------||

Dane nam jest.
Wielkie zło
i wielkie dobro.
Dane nam jest.
Wielkie Miasto
pustynia.
I jak ogromna łza.
Chorągiew powiewa nad nami.
Добавлено: 15.03.2012
Другие материалы по этой песне:
  • Аккорды и текст

Страница создана 15.03.2012
http://primanota.ru/armia/kochaj-mnie-chords.htm
Привет, Гость.
Предлагаем пройти революционный курс по гитаре.
Подарок от PrimaNota.Ru, забирай!