PrimaNota.ru - самый крупный в мире бесплатный архив песенных текстов, аккордов, табулатур и нот


Armchair Martian - 17 Years - таба, видео

Регистрация Запомнить меня
Войти через:  Facebook Google Twitter Vk Yandex Mail.ru

Armchair Martian - 17 Years - таба, видео

Печатать
Просмотров: 59
-------------------------------------------------------------------------------
                             17 years - Armchair Martian
-------------------------------------------------------------------------------
Tabbed by:rucusboy

Tuning: Standard

Intro:

e|---3---3---3---3---2--------------------------------------------------|
B|---3---3---3---3---3--------------------------------------------------|
G|---0---0---0---0---2--------------------------------------------------|
D|---0---0---2---2---0--------------------------------------------------|
A|---2---0---2---3------------------------------------------------------|
E|---3---2---0----------------------------------------------------------|

Verse:

e|---3---2---2---3---3---3----3---3---2------------------------------------|
B|---3---3---3---3---3---3----3---3---3------------------------------------|
G|---0---2---2---0---0---0----0---0---2------------------------------------|
D|---0---0---0---0---2---2----2---2---0------------------------------------|
A|---2-----------2---3---3----2---3----------------------------------------|
E|---3-----------3------------0--------------------------------------------|

Chours:

     G   D   C   C   D   C   D

e|---3---2---3---3---2---3---2---------------------------------------------|
B|---3---3---3---3---3---3---3--------------------------------------------|
G|---0---2---0---0---2---0---2---------------------------------------------|
D|---0---0---2---2---0---2---0---------------------------------------------|
A|---2-------3---3-------3-------------------------------------------------|
E|---3---------------------------------------------------------------------|

Solo:
just the bottom notes hit with some effect

Bridge

e|---3---2---3--------------------------------------------------------------|
B|---3---3---3--------------------------------------------------------------|
G|---0---2---0-------------------------------------------------------------|
D|---2---0---2--------------------------------------------------------------|
A|---2-------3--------------------------------------------------------------|
E|---0----------------------------------------------------------------------|


Hateful eyes, you're in disguise.
I see you there, all you do is stare.
How can you play the mess there that you made?
The singer is the same, but I refrain...

[Chorus:]
Will you like this song after 17 years?
There's no feeling left inside and the band's reunified.
Will you like this song after 17 years?
Part of me has died, been taken for a ride.

Saw these guys, before their ties.
The drummer's hair was in the air.
Stories been told, the bass player's fat and old.
And I feel the same, I still complain

[Chorus]

Got there early, stood in line (at the Roxy)
Bought my T-Shirt ahead of time (at the Avalon)

[Chorus]
===============================================================================
Добавлено: 01.02.2014
Другие материалы по этой песне:
  • Аккорды и текст

Страница создана 01.02.2014
http://primanota.ru/armchair-martian/17-years-chords.htm
Привет, Гость.
Предлагаем пройти революционный курс по гитаре.
Подарок от PrimaNota.Ru, забирай!