PrimaNota.ru - самый крупный в мире бесплатный архив песенных текстов, аккордов, табулатур и нот


Armandinho - Rosa Norte - бас-таба, видео

Регистрация Запомнить меня
Войти через:  Facebook Google Twitter Vk Yandex Mail.ru

Armandinho - Rosa Norte - бас-таба, видео

Печатать
Просмотров: 146
Уроки эстрадного вокала в Санкт-Петербурге
-------------------------------------------------------------------------------
                             ROSA NORTE - Armandinho
-------------------------------------------------------------------------------
Tabbed by: Ihago Oliveira
E-mail: ihagooliveira@hotmail.com

Tuning: Standard
Intro
   G|--------------------------|
   D|3-1-----------------------| x4
   A|----3-x1------x1---x3--x6-|
   E|---------1----------------|

Alallom, Alalalom
Alalalalomm


Tanto a intro quanto o verso podem ser tocados desse jeito também:

   G|-------------------------|
   D|3-1----------------------|
   A|----3-1------x1---x3--x6-|
   E|--------4-1--------------|

   



Verso

   G|--------------------------|
   D|3-1-----------------------| x10
   A|----3-x1------x1---x3--x6-|
   E|---------1----------------|

Pré-Chorus

   G|---------------------------|
   D|3-1------------------------|
   A|----3-x1------x1---1-3-1-3-|
   E|---------1-----------------|


Vou fugir pro Rosa Norte, e te levar comigo
Foi o brilho dos teus olhos, que mexeu comigo
E abre a porta do teu corpo, que eu quero estar contigo
Num barraco, na tua onda, no meio do teu livro

Lá no céu daquele morro
Eu fiz meu barraquinho
Onde eu fico em frente ao fogo, bebendo aquele vinho
Vendo a lua lá no morro
Eu vou dormir cedinho
Pra acordar no Rosa Norte
E surfar sozinho


Refrão

   G|---------------------------------------------------------|
   D|---------------------------------------------3-1---------|
   A|-4~--1-3-1-3-1-3-4~--1-3-1-3-1-3-4~-x3--x6-------3-x1----|
   E|-------------------------------------------------------1-|

   G|-------------------------------------------|
   D|-------------------------------------------|
   A|-4~--1-3-1-3-1-3-4~--1-3-1-3-1-3-4~-x3--x6-|
   E|-------------------------------------------|
  
   G|--------------------------|
   D|3-1-----------------------| x2
   A|----3-x1------x1---x3--x6-|
   E|---------1----------------|

Quero teu amor, ao amanhecer
E acordar beijando você
E ao entrar no mar, vou pedir ao céu
Que Iemanjá proteja meu bem, que Iemanjá proteja meu bem...
Que Iemanjá proteja meu bem

Verso

   G|--------------------------|
   D|3-1-----------------------| x4
   A|----3-x1------x1---x3--x6-|
   E|---------1----------------|

Pré-Chorus

   G|---------------------------|
   D|3-1------------------------|
   A|----3-x1------x1---1-3-1-3-|
   E|---------1-----------------|

Vou fugir pro Rosa Norte, e te levar comigo
Foi o brilho dos teus olhos, que mexeu comigo
E abre a porta do teu corpo, que eu quero estar contigo
Num barraco, na tua onda, no meio do teu livro

Refrão

   G|---------------------------------------------------------|
   D|---------------------------------------------3-1---------|
   A|-4~--1-3-1-3-1-3-4~--1-3-1-3-1-3-4~-x3--x6-------3-x1----|
   E|-------------------------------------------------------1-|

   G|-------------------------------------------|
   D|-------------------------------------------|
   A|-4~--1-3-1-3-1-3-4~--1-3-1-3-1-3-4~-x3--x6-|
   E|-------------------------------------------|
  
   G|-------------------------------------|
   D|3-1----------------------------------|
   A|----3-x1------x1---x3--x6--x1--x3-x6-|
   E|---------1---------------------------|

Quero teu amor, ao amanhecer
E acordar beijando você
E ao entrar no mar, vou pedir ao céu
Que Iemanjá proteja meu bem, que Iemanjá proteja meu bem...
Que Iemanjá proteja meu bem.

Solo
   G|--------------------------|
   D|3-1-----------------------| x2
   A|----3-x1------x1---x3--x6-|
   E|---------1----------------|

   
   G|---------------------------|
   D|3-1------------------------|
   A|----3-x1------x1---1-3-1-3-|
   E|---------1-----------------|

   G|---------------------------------------------------------|
   D|---------------------------------------------3-1---------| 2x
   A|-4~--1-3-1-3-1-3-4~--1-3-1-3-1-3-4~-x3--x6-------3-x1----|
   E|-------------------------------------------------------1-|


Fina
   G|----------------------------------------------------------------------------------|
   D|----------3-1------------------3-1-----------------3-1----------------------------|
   A|-4~-x3-x6-----3-x1----4~-x3-x6-----3-1---x1--x3-x6-----3-1---x1-x3-x6--8~----/20~-|
   E|-------------------1-------------------1-------------------1----------------------|

Quero teu amor, ao amanhecer
E acordar beijando você
E ao entrar no mar, vou pedir ao céu
Que Iemanjá proteja meu bem, que Iemanjá proteja meu bem...
Que Iemanjá proteja meu bem.



| /  slide up
| \  slide down
| h  hammer-on
| p  pull-off
| ~  vibrato
| +  harmonic
| x  Mute note
===============================================================================
Добавлено: 10.08.2015
Другие материалы по этой песне:
  • Аккорды и текст

Страница создана 10.08.2015
http://primanota.ru/armandinho/rosa-norte-chords.htm
Привет, Гость.
Предлагаем пройти революционный курс по гитаре.
Подарок от PrimaNota.Ru, забирай!