PrimaNota.ru - самый крупный в мире бесплатный архив песенных текстов, аккордов, табулатур и нот


Armand - Toen Ik Voorgoed Ontwaakte - аккорды и текст, видео

Регистрация Запомнить меня
Войти через:  Facebook Google Twitter Vk Yandex Mail.ru

Armand - Toen Ik Voorgoed Ontwaakte - аккорды и текст, видео

Печатать
Просмотров: 50
Toen Ik Voorgoed Ontwaakte
Armand
Armand - Toen Ik Voorgoed Ontwaakte

INTRO
G


VERSE 1
D             G                  Em
 Lange tijd geleden, tilde ik zo zwaar
                G                     Em
Aan het trieste leven, maar ik werd gewaar

CHORUS
   G           D       G             C                     G
En toen ik voorgoed ontwaakte was de rem op mijn leven voorbij
    C          G         C          G          D          G
Wat voel ik me vrij, wat voel ik me vrij en zo kinderlijk blij

VERSE 2
D             G                       Em
 Lange tijd geleden, verdedigde ik me trots
           G                          Em
En in mijn lege hoofd, heb ik mij verstopt

CHORUS
     G           D       G             C                     G
Maar toen ik voorgoed ontwaakte was de rem op mijn leven voorbij
    C          G         C          G          D          G
Wat voel ik me vrij, wat voel ik me vrij en zo kinderlijk blij

GUITAR SOLO
          G           Em             G           Em
e|-3-5-/7-7-------3-2-0-------3-5-/7-7-------3-2-0-----|
B|-----------------------------------------------------|
G|-----------------------------------------------------|
D|-----------------------------------------------------|
A|-----------------------------------------------------|
E|-----------------------------------------------------|

    G  D  G       C      G    C   G   C   G    D    G
e|-----5--7-------8--7-5-7----8-757---8-757----5-------|
B|--8--------8-7-5~--------------------------8--87--8--|
G|-7------------------------------------------------7--|
D|-----------------------------------------------------|
A|-----------------------------------------------------|
E|-----------------------------------------------------|

VERSE 3
D             G                   Em
 Lange tijd geleden, tilde ik zo zwaar
                G                     Em
Aan het trieste leven, maar ik werd gewaar

CHORUS
     G           D       G             C                     G
Want toen ik voorgoed ontwaakte was de rem op mijn leven voorbij
    C          G         C          G          D          G
Wat voel ik me vrij, wat voel ik me vrij en zo kinderlijk blij
Добавлено: 01.11.2015
Вам также может быть интересно:
Другие материалы по этой песне:
  • Аккорды и текст

Страница создана 01.11.2015
http://primanota.ru/armand/toen-ik-voorgoed-ontwaakte-chords.htm
Привет, Гость.
Предлагаем пройти революционный курс по гитаре.
Подарок от PrimaNota.Ru, забирай!